Song name
# A B C D E F G H I J K L M N O P Q R S T U V W X Y Z

The Gaslight Anthem - Old Haunts tab

Tuning - Half Step Down.

(Bryan)


Intro

Eb-----------|
Ab-----------|
Db--8-----6--|
Gb--8-9-4-6--|
Bb--6-9-4-4--|
Eb----7-2----|

Eb---------------|
Ab---------------|
Db--8-----6-6///-|
Gb--8-9-4-6-6///-|
Bb--6-9-4-4-4///-|
Eb----7-2--------|


Nice Riff....

Eb-------------------------------------------------------------------------|
Ab------2---2-4-4--------2-----------------2--------------------2---2-4-4--|
Db--3-3---3----------3-3---3-3-1-1-----3-3---3--1h3p1-------1-3---3--------|
Gb---------------------------------4------------------4-3-4----------------|
Bb-------------------------------------------------------------------------|
Eb-------------------------------------------------------------------------|


Verse

Eb-------------------------|
Ab-------------------------|
Db--8-----------------11---|
Gb--8--9--4-----8--9--11---|
Bb--6--9--4-----8--9--9----|
Eb-----7--2-----6--7-------| repeat as neccesary.


Eb--18---------------------------------------------|
Ab-----16-19---------------------------------------|
Db-----------16~--16-------------------------------|
Gb-------------------18-16----18----20----18-------|
Bb-------------------------16----16----16----16----|
Eb-------------------------------------------------| x1

Eb--18---------------------------------------------|
Ab-----16-19---------------------------------------|
Db-----------16~--16-------------------------------|
Gb-------------------18-16----18--18/20-21-20------|
Bb-------------------------16----------------------|
Eb-------------------------------------------------| x1

Eb--18---------------------------------------------|
Ab-----16-19---------------------------------------|
Db-----------16~--16-------------------------------|
Gb-------------------18-16----18----20----18-------|
Bb-------------------------16----16----16----16----|
Eb-------------------------------------------------| x1

Eb-------------------------------------------------|
Ab-------------------------------------------------|
Db--17----17--17--15--14----14----14--14/12--12----|
Gb-------------------------------------------------|
Bb-------------------------------------------------|
Eb-------------------------------------------------| x1


Thats all I can be bothered to do, these are the hard parts, you should be able to work 
out the rest, it basically just variations used on the chords in the intro...havnt got 
the solo as of yet...
Tap to rate this tab
 
# A B C D E F G H I J K L M N O P Q R S T U V W X Y Z