Song name
# A B C D E F G H I J K L M N O P Q R S T U V W X Y Z

The Gaslight Anthem - Old White Lincoln tab

This is a really,really good song and i noticed that the tabs for the intro 
was nowhere to be found so here they are. I personally think they sound 
spot on but if you find any problems post a comment.
Now have have fun and keep on rocking.



e|------------0--0-0----------1-1-1-0--0-0----------------------------------|
B|1--1-3--3-3--------3--3-3-3--------------3--3-3-1--1-0-0------------------|
G|--------------------------------------------------------------------------|
D|--------------------------------------------------------------------------|
A|--------------------------------------------------------------------------|
E|--------------------------------------------------------------------------|

e|------------0--0-0----------3--3--3-3-3-3--3--3--3-3-3-3------------------|
B|1--1-3--3-3--------3--3-3-3-----------------------------------------------|
G|--------------------------------------------------------------------------|
D|--------------------------------------------------------------------------|
A|--------------------------------------------------------------------------|
E|--------------------------------------------------------------------------|

And thats pretty much it. The rest of the song is just the four chords A F C and G in that order

Tap to rate this tab
# A B C D E F G H I J K L M N O P Q R S T U V W X Y Z