Song name
# A B C D E F G H I J K L M N O P Q R S T U V W X Y Z

The Gaslight Anthem - Keepsake tab

Tuning: half-step down


*=Palm mute

Intro

|-----4-4------0-0------4-4------0-0------4-4------0-0------7-7------2-2----|
|-----4-4------0-0------4-4------0-0------4-4------0-0------7-7------2-2----|
|-----4-4------1-1------4-4------1-1------4-4------1-1------8-8------3-3----|
|-6-6-6-6--2-2-2-2--6-6-6-6--2-2-2-2--6-6-6-6--2-2-2-2--9-9-9-9--4-4-4-4----|
|-6-6-6-6--2-2-2-2--6-6-6-6--2-2-2-2--6-6-6-6--2-2-2-2--9-9-9-9--4-4-4-4----|
|-4-4-4-4--0-0-0-0--4-4-4-4--0-0-0-0--4-4-4-4--0-0-0-0--7-7-7-7--2-2-2-2----|
  * *      * *      * *      * *      * *      * *      * *      * *
only rhythm guitar


|-----4-4------0-0------4-4------0-0------4-4------0-0------7-7------2-2----|
|-----4-4------0-0------4-4------0-0------4-4------0-0------7-7------2-2----|
|-----4-4------1-1------4-4------1-1------4-4------1-1------8-8------3-3----|
|-6-6-6-6--2-2-2-2--6-6-6-6--2-2-2-2--6-6-6-6--2-2-2-2--9-9-9-9--4-4-4-4----|
|-6-6-6-6--2-2-2-2--6-6-6-6--2-2-2-2--6-6-6-6--2-2-2-2--9-9-9-9--4-4-4-4----|
|-4-4-4-4--0-0-0-0--4-4-4-4--0-0-0-0--4-4-4-4--0-0-0-0--7-7-7-7--2-2-2-2----|
  * *      * *      * *      * *      * *      * *      * *      * *

|-11--11----------------------|      |-----------------------------------|
|-14b-14b-14-14-16-14-12- x3 -|      |----12-14--12-14-14b--14-12--------|
|-----------------------------| then |-13-------------------------13-13--|
|-----------------------------|      |-----------------------------------|
|-----------------------------|      |-----------------------------------|
|-----------------------------|      |-----------------------------------|

Verse


|-----4-4------0-0------4-4------0-0------4-4------0-0------7-7------2-2----|
|-----4-4------0-0------4-4------0-0------4-4------0-0------7-7------2-2----|
|-----4-4------1-1------4-4------1-1------4-4------1-1------8-8------3-3----|   x2
|-6-6-6-6--2-2-2-2--6-6-6-6--2-2-2-2--6-6-6-6--2-2-2-2--9-9-9-9--4-4-4-4----|
|-6-6-6-6--2-2-2-2--6-6-6-6--2-2-2-2--6-6-6-6--2-2-2-2--9-9-9-9--4-4-4-4----|
|-4-4-4-4--0-0-0-0--4-4-4-4--0-0-0-0--4-4-4-4--0-0-0-0--7-7-7-7--2-2-2-2----|
  * *      * *      * *      * *      * *      * *      * *      * *

|-------------------------------------|
|-------------------------------------|
|-------------------------------------|  2nd guitar riff during the verse
|------9-11-11b--11b--11--11-9--------|
|-9-11-------------------------11-----|
|-------------------------------------|

Chorus

|------------------------------------------------------------|
|------------------------------------------------------------|
|------------------------------------------------------------| x4
|-6-6-6-6--2-2-2-2--9-9-9-9--4-4-4-4-------------------------|
|-6-6-6-6--2-2-2-2--9-9-9-9--4-4-4-4-------------------------|
|-4-4-4-4--0-0-0-0--7-7-7-7--2-2-2-2-------------------------|

Intro riff again


|-----4-4------0-0------4-4------0-0------4-4------0-0------7-7------2-2----|
|-----4-4------0-0------4-4------0-0------4-4------0-0------7-7------2-2----|
|-----4-4------1-1------4-4------1-1------4-4------1-1------8-8------3-3----|
|-6-6-6-6--2-2-2-2--6-6-6-6--2-2-2-2--6-6-6-6--2-2-2-2--9-9-9-9--4-4-4-4----|
|-6-6-6-6--2-2-2-2--6-6-6-6--2-2-2-2--6-6-6-6--2-2-2-2--9-9-9-9--4-4-4-4----|
|-4-4-4-4--0-0-0-0--4-4-4-4--0-0-0-0--4-4-4-4--0-0-0-0--7-7-7-7--2-2-2-2----|
  * *      * *      * *      * *      * *      * *      * *      * *

|-11--11----------------------|      |-----------------------------------|
|-14b-14b-14-14-16-14-12- x3 -|      |----12-14--12-14-14b--14-12--------|
|-----------------------------| then |-13-------------------------13-13--|
|-----------------------------|      |-----------------------------------|
|-----------------------------|      |-----------------------------------|
|-----------------------------|      |-----------------------------------|

Verse


|-----4-4------0-0------4-4------0-0------4-4------0-0------7-7------2-2----|
|-----4-4------0-0------4-4------0-0------4-4------0-0------7-7------2-2----|
|-----4-4------1-1------4-4------1-1------4-4------1-1------8-8------3-3----|   x2
|-6-6-6-6--2-2-2-2--6-6-6-6--2-2-2-2--6-6-6-6--2-2-2-2--9-9-9-9--4-4-4-4----|
|-6-6-6-6--2-2-2-2--6-6-6-6--2-2-2-2--6-6-6-6--2-2-2-2--9-9-9-9--4-4-4-4----|
|-4-4-4-4--0-0-0-0--4-4-4-4--0-0-0-0--4-4-4-4--0-0-0-0--7-7-7-7--2-2-2-2----|
  * *      * *      * *      * *      * *      * *      * *      * *

|-------------------------------------|
|-------------------------------------|
|-------------------------------------|  2nd guitar riff during the verse
|------9-11-11b--11b--11--11-9--------|
|-9-11-------------------------11-----|
|-------------------------------------|

Chorus

|------------------------------------------------------------|
|------------------------------------------------------------|
|------------------------------------------------------------| x4
|-6-6-6-6--2-2-2-2--9-9-9-9--4-4-4-4-------------------------|
|-6-6-6-6--2-2-2-2--9-9-9-9--4-4-4-4-------------------------|
|-4-4-4-4--0-0-0-0--7-7-7-7--2-2-2-2-------------------------|

Bridge

|-7---7---4---4---0---0---2---2-----------------    ---------------4---|
|-7---7---4---4---0---0---2---2-----------------    ---------------4---|
|-8---8---4---4---1---1---3---3----------------- x2 -3-3-3-3-3-3-3-4---|
|-9---9---6---6---2---2---4---4-----------------    -4-4-4-4-4-4-4-6---|
|-9---9---6---6---2---2---4---4-----------------    -4-4-4-4-4-4-4-6---|
|-7---7---4---4---0---0---2---2-----------------    -2-2-2-2-2-2-2-4---|
                                                     * * * * * * *

|-----------------------------------------|
|-----4-------0-------7-------2-----------|
|---4---4---1---1---8---8---3---3---------|  x2
|-6-------2-------9-------4---------------|
|-----------------------------------------|
|-----------------------------------------|

Chorus

|------------------------------------------------------------|
|------------------------------------------------------------|
|------------------------------------------------------------| x4
|-6-6-6-6--2-2-2-2--9-9-9-9--4-4-4-4-------------------------|
|-6-6-6-6--2-2-2-2--9-9-9-9--4-4-4-4-------------------------|
|-4-4-4-4--0-0-0-0--7-7-7-7--2-2-2-2-------------------------|


Intro riff x2


|-----4-4------0-0------4-4------0-0------4-4------0-0------7-7------2-2----|
|-----4-4------0-0------4-4------0-0------4-4------0-0------7-7------2-2----|
|-----4-4------1-1------4-4------1-1------4-4------1-1------8-8------3-3----|
|-6-6-6-6--2-2-2-2--6-6-6-6--2-2-2-2--6-6-6-6--2-2-2-2--9-9-9-9--4-4-4-4----|
|-6-6-6-6--2-2-2-2--6-6-6-6--2-2-2-2--6-6-6-6--2-2-2-2--9-9-9-9--4-4-4-4----|
|-4-4-4-4--0-0-0-0--4-4-4-4--0-0-0-0--4-4-4-4--0-0-0-0--7-7-7-7--2-2-2-2----|
  * *      * *      * *      * *      * *      * *      * *      * *

|-11--11----------------------|      |-----------------------------------|
|-14b-14b-14-14-16-14-12- x3 -|      |----12-14--12-14-14b--14-12--------|
|-----------------------------| then |-13-------------------------13-13--|
|-----------------------------|      |-----------------------------------|
|-----------------------------|      |-----------------------------------|
|-----------------------------|      |-----------------------------------|
Tap to rate this tab
 
# A B C D E F G H I J K L M N O P Q R S T U V W X Y Z