Song name
# A B C D E F G H I J K L M N O P Q R S T U V W X Y Z

The Gaslight Anthem - 45 Acoustic tab

The Gaslight Anthem - 45 Acoustic Tabbed By Mike Curre
This is tabbed from the acoustic performance Fallon did for NME available here 
http://www.youtube.com/watch?v=E0_OgdrURn4

I've been looking on here for an accurate acoustic version but i couldn't find one, 
hopefully this is good enough!! Ps the album is ridiculously good. Everyone should buy it!

The tuning for this is 1 step down

DGCFAD with CAPO 1st Fret

All chords relevant to capo.

Chords Used

E* 079900
Eb X68800
B X24400
C# X46600
A X02220
E 022100
Abm 466444
A*577655
B*799677

Intro

d|---------------------------------------------------------------------------|
A|---------------------------------------------------------------------------|
F|------4-------4------------------------------------------------------------|
C|----2---2---2--2------X 2--------------------------------------------------|
G|--4-------2------2---------------------------------------------------------|
D|---------------------------------------------------------------------------|

E* B C# Eb E*

Verse 1
E*                                   B C#
Have you seen my hands?
                                  Eb
Just look at 'em shake.
E*                                             B   C#
And the song just keeps on repeating,
                                  Eb
Drop the needle again.
E*                                        B C#
And I dance with your ghost,
                                      B
Oh, but that ain't the way...
A                                                     B
I can't move on and I can't stay the same.


And all my friends say...

Chorus
C#     A   E                       B
"Hey hey, turn the record over.
C#   A     E         B
Hey hey, and I'll see you on the flip side.
E               B    C#                  A
There you go, turn the key and engine over.
E          B    C#                  A
Let her go, let somebody else lay at her feet."


d|---------------------------------------------------------------------------|
A|---------------------------------------------------------------------------|
F|------4-------4------------------------------------------------------------|
C|----2---2---2--2------X 2--------------------------------------------------|
G|--4-------2------2---------------------------------------------------------|
D|---------------------------------------------------------------------------|

Verse 2 (Same as Verse 1)

Have you seen my heart,
Have you seen how it bleeds?
And the nights are so long, baby,
Out here in the deep.
The tick, ticking of hours, lonely.
I hear the alarm
I used to hear when she would sleep in my arms.
But "better sense" says...
"Hey hey, turn the record over.

Chorus

Hey hey, and I'll see you on the flip side.
There you go, turn the key and engine over.
Let her go, let somebody else lay at her feet."
And all my friends say,
"Hey hey, turn the record over.
Hey hey, and I'll see you on the flip side.
There you go, turn the key and engine over.
Let her go, let somebody else lay at her feet."

Interlude

C#       Abm                          A*   B*
           Where you used to be
Pick these chords
C#    Abm A* B*

Strum Intro
d|---------------------------------------------------------------------------|
A|---------------------------------------------------------------------------|
F|------4-------4------------------------------------------------------------|
C|----2---2---2--2------X 2--------------------------------------------------|
G|--4-------2------2---------------------------------------------------------|
D|---------------------------------------------------------------------------|

Then Repeat Chorus.


There we go. Pretty Basic.
Tap to rate this tab
 
# A B C D E F G H I J K L M N O P Q R S T U V W X Y Z