Song name
# A B C D E F G H I J K L M N O P Q R S T U V W X Y Z

The Gaslight Anthem - 59 Sound tab

Hey Guys! Thought i would Re-Tab this based on all the other attempts but the whole 
song, and in more depth! It should be nearly perfect and i will try and give some idea of 
rhythm but your better off listening to the song!
First tab but have fun and enjoy!



<=> Picking pattern or method
x   Mute
D   Down Strum
U   Up-Strum
P.M Palm Mute
>   Accented (still muted but less so)


Guitar 1

e -3----3---3--3--3--3---3--3--3---3-3-3---3----3---3--3--3--3---3--3--3---|
B -3----3---3--3--3--3---3--3--3---3-3-3---3----3---3--3--3--3---3--3--3---|
G -0----0---0--0--0--0---0--0--0---0-0-0---0----0---0--0--0--0---0--0--0---|
D -0----0---0--0--0--0---0--0--0---0-0-0---2----2---2--2--2--2---2--2--2---|
A -2----2---2--2--2--2---2--2--2---2-2-2---3----3---3--3--3--3---3--3--3---|
E -3----3---3--3--3--3---3--3--3---3-3-3---x----x---x--x--x--x---x--x--x---|

  <======Fast Downstrokes======>    <=========All Downstrokes======>

e -3--3--3--0---0---0--0--0--2---2--2--2--2--2-2-2--0----0---0--0--0--0---|
B -3--3--3--0---0---0--0--0--3---3--3--3--3--3-3-3--1----1---1--1--1--1---|
G -0--0--0--0---0---0--0--0--2---2--2--2--2--2-2-2--0----0---0--0--0--0---|
D -2--2--2--2---2---2--2--2--0---0--0--0--0--0-0-0--2----2---2--2--2--2---|
A -3--3--3--2---2---2--2--2--0---0--0--0--0--0-0-0--3----3---3--3--3--3---|
E -x--x--x--0---0---0--0--0--x---x--x--x--x--x-x-x--x----x---x--x--x--x---|

  <=========Downstrokes still...==========>      <===Downstrokes===>

e -0--0---0--0--0|
B -1--1---1--1--1|
G -0--0---0--0--0|      (x2)
D -2--2---2--2--2|
A -3--3---3--3--3|
E -x--x---x--x--x|


Guitar 2+3 (Light Distortion)
(Wait for guitar 1 to play once through, then...)

e --------------------------------------------------------------------|
B --------------------------------------------------------------------|
G -0-0---0-2-2---2-4-4---4-2-2---2-0-0---0-2-2---2-4-4---4-2-2---2-0-0|
D --------------------------------------------------------------------|
A --------------------------------------------------------------------|
E --------------------------------------------------------------------|

e ---------------------------|
B ---------------------------|
G -0-2-2---2--------0-0---0--|
D -----------4-4---4-------0~|
A ---------------------------|
E ---------------------------|

OR/AND (if your band is overpopulated with guitarists)

e --------------------------------------------------------------------|
B --------------------------------------------------------------------|
G -12-12---12-14-14---14-16-16---16-14-14---14-12-12---12-14-14---14--|
D --------------------------------------------------------------------|
A --------------------------------------------------------------------|
E --------------------------------------------------------------------|

e ---------------------------------------------------|
B ---------------------------------------------------|
G -16-16---16-14-14---14-12-12---12-14-14----14------|
D ----------------------------------------------16-16|
A ---------------------------------------------------|
E ---------------------------------------------------|

e --------------------|
B --------------------|
G -------12-12---12---|
D ----16-----------12~|
A --------------------|
E --------------------|

(There is a VERY quiet muted guitar part in the background here... if you REALLYYY need 
it email me.

basically for this you need to pick the A, D and G strings with the bottom E dropped in 
on the Em, Im not tabbing out all the picking. just end on the G.

  -Em-  -Dm-  -Em-   -C------|
e -0-----0-----0------0------|
B -0-----3-----0------1------|
G -0-----4-----0------0------|   (x2)
D -2-----4-----2------2------|
A -2-----2-----2------3------|
E -0-----x-----0------x------|


(Previous version of this are nearly correct)

e -------------------|
B -------------------|
G ---0---0---0---0---|  (x2)
D --2-2-2-2-0-0-0-0--|
A -----3---2---------|
E -0-----------2-----|


just repeat the Intro but with fast down-strokes only...

~Middle 8~ (Young boys.... Young girls...)

   P.M > P.M > P.M > P.M > P.M >
e -3-3-3-3-3-3-3-3-3-3-3-3-2-2-2--|
B -3-3-3-3-3-3-3-3-3-3-3-3-3-3-3--|
G --------------------------------|  (x8)
D --------------------------------|
A --------------------------------|
E --------------------------------|

And that's pretty much it!

Middle 8

Thanks guys! Please Rate and Credit.
Have Fun!
Tap to rate this tab
# A B C D E F G H I J K L M N O P Q R S T U V W X Y Z