Song name
# A B C D E F G H I J K L M N O P Q R S T U V W X Y Z

The Gaslight Anthem - Even Cowgirls Get The Blues tab

Hello, this is my first tab and I think that is pretty much how they play the intro. 
If there is anyone how got suggested improvments, please let me know :) 

/ = slide up
\ = slide down
h = hammer on 
p = pull off
b = bend
r = release
x = muted string
~ = vibrato

Even Cowgirls Get The Blues - The Gaslights Anthem


d|------9-------------------------------------------------|
A|---11~---11--9-----9------------------------------------|
F|---------------10~----10--9--8~---8-8--9--10------------|
C|----------------------------------------------8~---6/---|
G|--------------------------------------------------------|
D|--------------------------------------------------------|

d|------9-------------------------------------------------|
A|---11~---11--9-----9------------------------------------|
F|---------------10~---10--9------------------------------|
C|----------------------------10--10b--10---8~---6/-------|  
G|--------------------------------------------------------|
D|--------------------------------------------------------|

d|------9-------------------------------------------------|
A|---11~---11--9-----9-------------------------10~--9~----|
F|---------------10~---10--9--8~---8-8h-9h-10-------------|
C|--------------------------------------------------------|
G|--------------------------------------------------------|
D|--------------------------------------------------------|

d|------9------------------------11---11b--11b------------|
A|---11~---11--9-----9-----9--------------------10~-------|
F|---------------10~---10~--------------------------------|
C|--------------------------------------------------------|
G|--------------------------------------------------------|
C|--------------------------------------------------------|
Tap to rate this tab
 
# A B C D E F G H I J K L M N O P Q R S T U V W X Y Z