Song name
# A B C D E F G H I J K L M N O P Q R S T U V W X Y Z

The Gaslight Anthem - Mae tab

this sounds good to me

eb----------------------------------------------------|
Bb----------------------------------------------------|
Gb----------------------------------------------------| repeat through verse
Db---4-4-4-4-4-4-4-4-4-4-4-4-4-4-4-4------------------|
Ab--2-2-2-2-------------------------------------------|
Eb----------2-2-2-2-4-4-4-4-0-0-0-0-------------------|


the chords chords are

eb--------------------------|
Bb--------------------------|
Gb--4-----------------------|
Db--4---4---6---2-----------|
Ab--2---4---6---2-----------|
Eb------2---4---0-----------|
   B5  F#5 G#5  E5

eb--11--14---------------------|
Bb---------14--16--11--14------|
Gb-----------------------------| this is the solo bit during the chorus
Db-----------------------------|
Ab-----------------------------|
Eb-----------------------------|
Tap to rate this tab
 
# A B C D E F G H I J K L M N O P Q R S T U V W X Y Z