Song name
# A B C D E F G H I J K L M N O P Q R S T U V W X Y Z

The Gaslight Anthem - Handwritten tab

-------------------------------------------------------------------------------
                             Handwritten - Gaslight Anthem 
-------------------------------------------------------------------------------
Tabbed by: Connorb13
E-mail:connorbetts-1995@hotmail.co.uk

Tuning: Half Step down

Intro Lead
                                                         
e|---------------------------------------------------------------------------|
B|----------7------------------------7-9-7----------------9------------------|
G|--8---------------------------6-8-------8-6-8------------------------------|
D|-----------------9---------------------------------------------------------|
A|---------------------------------------------------------------------------|
E|---------------------------------------------------------------------------|
                                                         ^ Last Time through
Rhythm
e|---------------------------------------------------------------------------|
B|---------------------------------------------------------------------------|
G|-----------------4---------------------------------------------------------|
D|--6--------------4-------------2-------------------------------------------|
A|--6--------------2-------------2-------------------------------------------|
E|--4----------------------------0-------------------------------------------|x2

e|---------------------------------------------------------------------------|
B|---------------------------------------------------------------------------|
G|---------------------------------------------------------------------------|
D|--6-------------4--------------2-------------------------------------------|
A|--6-------------4--------------2-------------------------------------------|
E|--4-------------2--------------0-------------------------------------------|x2

Verse Lead

e|---------------------------------------------------------------------------|
B|-----7-9-7-----------------------------------------------------------------|
G|-6-8-------8-6-8-----------------------------------------------------------|
D|---------------------------------------------------------------------------|
A|---------------------------------------------------------------------------|
E|---------------------------------------------------------------------------|

Rhythm

e|---------------------------------------------------------------------------|
B|---------------------------------------------------------------------------|
G|-----------------4---------------------------------------------------------|
D|--6--------------4-------------2-------------------------------------------|
A|--6--------------2-------------2-------------------------------------------|
E|--4----------------------------0-------------------------------------------|x2

Lead

e|---------------------------------------------------------------------------|
B|------7-----7-----7-----7--------------------------------------------------|
G|--6-6---6-6---6-6---6-6---6-8-6-8------------------------------------------|
D|---------------------------------------------------------------------------|
A|---------------------------------------------------------------------------|
E|---------------------------------------------------------------------------|

Rhythm

e|---------------------------------------------------------------------------|
B|---------------------------------------------------------------------------|
G|---------------------------------4-4-4-4-4-4-4-4---------------------------|
D|-6-6-6-6-6-6-6-6-2-2-2-2-2-2-2-2-4-4-4-4-4-4-4-4-4-4-4-4-4-4-4-4-----------|
A|-6-6-6-6-6-6-6-6-2-2-2-2-2-2-2-2-2-2-2-2-2-2-2-2-4-4-4-4-4-4-4-4-----------|
E|-4-4-4-4-4-4-4-4-0-0-0-0-0-0-0-0-----------------2-2-2-2-2-2-2-2-----------|

Lead

e|---------------------------------------------------------------------------|
B|-12-12-12-12-14-14-14-14-16-16-16-16-14-14-14-14-17-17-17-17-16-16-16-16---|
G|---------------------------------------------------------------------------|
D|---------------------------------------------------------------------------|
A|---------------------------------------------------------------------------|
E|---------------------------------------------------------------------------|

e|------------------------------------------------------------------------------|
B|-14-14-14-14-12-12-12-12-19-19-19-19-17-17-17-17-16-16-16-16-14-14-14-14-12x16|
G|------------------------------------------------------------------------------|
D|------------------------------------------------------------------------------|
A|------------------------------------------------------------------------------|
E|------------------------------------------------------------------------------|

Rhythm

e|---------------------------------------------------------------------------|
B|---------------------------------------------------------------------------|
G|-4-4-4-4-4-4-4-4-----------------------------------------------------------|
D|-4-4-4-4-4-4-4-4-4-4-4-4-4-4-4-4-6-6-6-6-6-6-6-6-2-2-2-2-2-2-2-2-----------|
A|-2-2-2-2-2-2-2-2-4-4-4-4-4-4-4-4-6-6-6-6-6-6-6-6-2-2-2-2-2-2-2-2-----------|
E|-----------------2-2-2-2-2-2-2-2-4-4-4-4-4-4-4-4-0-0-0-0-0-0-0-0-----------|

Chorus Rhythm

e|---------------------------------------------------------------------------|
B|---------------------------------------------------------------------------|
G|-------------------4-4-444-------------------------------------------------|
D|-6-6-666--2-22-222-4-4-444-4-44-444----------------------------------------|
A|-6-6-666--2-22-222-2-2-222-4-44-444----------------------------------------|
E|-4-4-444--0-00-000---------2-22-222----------------------------------------|

Verse Lead

e|---------------------------------------------------------------------------|
B|-----7-9-7-----------------------------------------------------------------|
G|-6-8-------8-6-8-----------------------------------------------------------|
D|---------------------------------------------------------------------------|
A|---------------------------------------------------------------------------|
E|---------------------------------------------------------------------------|

Rhythm

e|---------------------------------------------------------------------------|
B|---------------------------------------------------------------------------|
G|-----------------4---------------------------------------------------------|
D|--6--------------4-------------2-------------------------------------------|
A|--6--------------2-------------2-------------------------------------------|
E|--4----------------------------0-------------------------------------------|x2

Lead

e|---------------------------------------------------------------------------|
B|------7-----7-----7-----7--------------------------------------------------|
G|--6-6---6-6---6-6---6-6---6-8-6-8------------------------------------------|
D|---------------------------------------------------------------------------|
A|---------------------------------------------------------------------------|
E|---------------------------------------------------------------------------|

Rhythm

e|---------------------------------------------------------------------------|
B|---------------------------------------------------------------------------|
G|---------------------------------4-4-4-4-4-4-4-4---------------------------|
D|-6-6-6-6-6-6-6-6-2-2-2-2-2-2-2-2-4-4-4-4-4-4-4-4-4-4-4-4-4-4-4-4-----------|
A|-6-6-6-6-6-6-6-6-2-2-2-2-2-2-2-2-2-2-2-2-2-2-2-2-4-4-4-4-4-4-4-4-----------|
E|-4-4-4-4-4-4-4-4-0-0-0-0-0-0-0-0-----------------2-2-2-2-2-2-2-2-----------|

Lead

e|---------------------------------------------------------------------------|
B|-12-12-12-12-14-14-14-14-16-16-16-16-14-14-14-14-17-17-17-17-16-16-16-16---|
G|---------------------------------------------------------------------------|
D|---------------------------------------------------------------------------|
A|---------------------------------------------------------------------------|
E|---------------------------------------------------------------------------|

e|------------------------------------------------------------------------------|
B|-14-14-14-14-12-12-12-12-19-19-19-19-17-17-17-17-16-16-16-16-14-14-14-14-12x16|
G|------------------------------------------------------------------------------|
D|------------------------------------------------------------------------------|
A|------------------------------------------------------------------------------|
E|------------------------------------------------------------------------------|

Rhythm

e|---------------------------------------------------------------------------|
B|---------------------------------------------------------------------------|
G|-4-4-4-4-4-4-4-4-----------------------------------------------------------|
D|-4-4-4-4-4-4-4-4-4-4-4-4-4-4-4-4-6-6-6-6-6-6-6-6-2-2-2-2-2-2-2-2-----------|
A|-2-2-2-2-2-2-2-2-4-4-4-4-4-4-4-4-6-6-6-6-6-6-6-6-2-2-2-2-2-2-2-2-----------|
E|-----------------2-2-2-2-2-2-2-2-4-4-4-4-4-4-4-4-0-0-0-0-0-0-0-0-----------|

Chorus Rhythm

e|---------------------------------------------------------------------------|
B|---------------------------------------------------------------------------|
G|-------------------4-4-444-------------------------------------------------|
D|-6-6-666--2-22-222-4-4-444-4-44-444----------------------------------------|
A|-6-6-666--2-22-222-2-2-222-4-44-444----------------------------------------|
E|-4-4-444--0-00-000---------2-22-222----------------------------------------|

Bridge

e|---------------------------------------------------------------------------|
B|---------------------------------------------------------------------------|
G|---------------------------------------------------------------------------|
D|-2-----------4----------2----------4---------------------------------------|
A|-2-----------4----------2----------4---------------------------------------|
E|-0-----------2----------0----------2---------------------------------------|

Lead Outro

e|---------------------------------------------------------------------------|
B|-12-12-12-12-14-14-14-14-16-16-16-16-14-14-14-14-17-17-17-17-16-16-16-16---|
G|---------------------------------------------------------------------------|
D|---------------------------------------------------------------------------|
A|---------------------------------------------------------------------------|
E|---------------------------------------------------------------------------|

e|------------------------------------------------------------------------------|
B|-14-14-14-14-12-12-12-12-19-19-19-19-17-17-17-17-16-16-16-16-14-14-14-14-12x16|
G|------------------------------------------------------------------------------|
D|------------------------------------------------------------------------------|
A|------------------------------------------------------------------------------|
E|------------------------------------------------------------------------------|

Rhythm

e|---------------------------------------------------------------------------|
B|---------------------------------------------------------------------------|
G|-4-4-4-4-4-4-4-4-----------------------------------------------------------|
D|-4-4-4-4-4-4-4-4-4-4-4-4-4-4-4-4-6-6-6-6-6-6-6-6-2-2-2-2-2-2-2-2-----------|
A|-2-2-2-2-2-2-2-2-4-4-4-4-4-4-4-4-6-6-6-6-6-6-6-6-2-2-2-2-2-2-2-2-----------|
E|-----------------2-2-2-2-2-2-2-2-4-4-4-4-4-4-4-4-0-0-0-0-0-0-0-0-----------|


************************************

| /   slide up
| \   slide down
| h   hammer-on
| p   pull-off
| ~   vibrato
| +   harmonic
| x   Mute note
| b   Bend
| pb  Pre-bend
| br  Bend release
| pbr Pre-bend release
| brb Bend release bend

************************************
Tap to rate this tab
# A B C D E F G H I J K L M N O P Q R S T U V W X Y Z