Song name
# A B C D E F G H I J K L M N O P Q R S T U V W X Y Z

The Gaslight Anthem - 45 tab

d|----------------------|
A|----------------------|
F|----------------------|
C|----9-----9-----------| Intro
B|---7-7---7-7----------|
D|--9-----7-------------|

d|-----------------------------------------------|
A|--12--9----------------------------------------|
F|--------11--11/13/11/9--9-11--11/13/11/9-------|
C|-----------------------------------------------| Riff
B|-----------------------------------------------|
D|-----------------------------------------------|

d|---x/x----x/x----------|
A|---x/x----x/x----------|
F|---x/x----x/x----------| Verse (Repeated)
C|---9/9----9/9----------|
B|---6/7----x/7----------| Listen to the song for timing as its quite difficult to get accurate
D|---0/0----7/9----------|

d|---x---x-----
A|---x---x-----
F|---x---x----- Pre-Chorus (Each strummed once)
C|---9---9---
B|---7---7---
D|---5---7---

d|----x--x--x--x----x--x--x--x----x--x--x--x----x--x--x--x----|
A|----x--x--x--x----x--x--x--x----x--x--x--x----x--x--x--x----|
F|----x--x--x--x----x--x--x--x----x--x--x--x----x--x--x--x----|
C|----9--9--9--9----9--9--9--9----9--9--9--9----9--9--9--9----| Chorus (listen for strumming pattern)
B|----7--7--7--7----7--7--7--7----7--7--7--7----7--7--7--7----|
D|----9--0--5--7----9--0--5--7----0--7--9--5----0--7--9--5----|

I figured this out from
https://www.youtube.com/watch?v=Y3kFKrxYOx0
Tap to rate this tab
# A B C D E F G H I J K L M N O P Q R S T U V W X Y Z