Song name
# A B C D E F G H I J K L M N O P Q R S T U V W X Y Z

The Gay Blades - Puppy Mills Presents tab

Artist: The Gay Blades
Song: Puppy Mills Presents
Album: Savages (2010)
Standard Tuning

Verses

|----------|
|-5--------|
|-6-8-6----|
|-6-9-7----|
|-4-9-7----|
|---7-5----|

"I've got to brainstorm ways..."


Chorus

|-0--0----------|
|-0--5----------|
|-1--6--6--8----|
|-2--6--7--9----|
|-2--4--7--9----|
|-0-----5--7----|

"I was drunk in the moment she met me..."
Tap to rate this tab
 
# A B C D E F G H I J K L M N O P Q R S T U V W X Y Z