Song name
# A B C D E F G H I J K L M N O P Q R S T U V W X Y Z

The Gentle Waves - Falling From Grace tab

CAPO ON THE 4TH FRET!

Em

Em          C
You make me satisfied
D        Bm
You only want to ride
C          Am
But that's alright by me
Bm        Em
We happen to be free
Em         C
For what tomorrow brings
D            Bm
No peace and broken wings
C           Am      
It may have been so good
Bm           Em
But now it's understood
C            Bm
'Twas just a night

Em

Em         C
If I could tear my heart
D           Bm
And keep it miles apart
C            Am
From love of beast or man
Bm        Em
And never give a damn
Em         C  
If I could learn to lie
D         Bm
And never show my pride
C           Am
I'd be just like the rest
Bm         Em
Be someone I detest

C          D               G
I'm always looking for the sun
C          D               G      Bm
I'm always looking for the sun to shine


  Em      C       D       Bm     C      Am     Bm     Em
e|-7-12-7-10-8-8---5-10-5-8-7-7---3-8-3-7-5-5---2-7-2-5-3-3-|
B|----------------------------------------------------------|
G|----------------------------------------------------------|
D|----------------------------------------------------------|
A|----------------------------------------------------------|
E|----------------------------------------------------------|

   Em     C                 D      Bm              C     Am      Bm    Em
e|-7-12-7-10-8-8-8h10-8-5---5-10-5-8-7-7-7h8-7-3---3-8-3-7-5-5---2-7-2-5-3-3-|
B|------------------------7----------------------5---------------------------|
G|---------------------------------------------------------------------------|
D|---------------------------------------------------------------------------|
A|---------------------------------------------------------------------------|
E|---------------------------------------------------------------------------|
  C      D          G           C       D       G         Bm
e|-3-5-3-2--3-5-7h8-7---7h8-7-3---3-5-3-2--10-8-7----5-2h3-2----|
B|------------------------------5-------------------------------|
G|--------------------------------------------------------------|
D|--------------------------------------------------------------|
A|--------------------------------------------------------------|
E|--------------------------------------------------------------|
(This last part of the solo is also used in the chorus)

Em
Love...

Em           C
Destroys the best of us
D               Bm
Then leaves the rest of us
C           Am
Thinking perhaps we'll die
Bm           Em
Yet still we stay alive
Em        C
Lost in a hollow frame
D           Bm
With lonely tears remain
C           Am
Not knowing our life's worth
Bm        Em
Dragging around the earth
C             Bm
How false the light

Em          C
You make me satisfied
D        Bm
You only want to ride
C            Am
But that's alright by me
Bm        Em
We happen to be free
Em        C
And if we fall from grace
D           Bm
At least we had a taste
C            Am
Of something more than this
Bm         Em
Unresolved black abyss

C          D               G
I'm always looking for the sun
C          D               G
I'm always looking for the sun
C          D               G
I'm always looking for the sun
C        D               G      Bm
I'm only looking for the sun to shine



Here is the fingering for the verses:
  Em                C                 D                 Bm
e|-----7-----7-----|-----3-----3-----|-----5-----5-----|-----2-----2-----|
B|---8-----8-----8-|---5-----5-----5-|---7-----7-----7-|---3-----3-----3-|
G|-9-----9-----9---|-5-----5-----5---|-7-----7-----7---|-4-----4-----4---|
D|-----------------|-----------------|-----------------|-----------------|
A|-----------------|-----------------|-----------------|-----------------|
E|-----------------|-----------------|-----------------|-----------------|

  C                 Am                 Bm               Em
e|-----3-----3-----|-----0-----0-----|-----2-----2-----|-----7-----7-----|
B|---5-----5-----8-|---1-----1-----1-|---3-----3-----3-|---8-----8-----8-|
G|-5-----5-----9---|-2-----2-----2---|-4-----4-----4---|-9-----9-----9---|
D|-----------------|-----------------|-----------------|-----------------|
A|-----------------|-----------------|-----------------|-----------------|
E|-----------------|-----------------|-----------------|-----------------|


************************************

| /   slide up
| \   slide down
| h   hammer-on
| p   pull-off
| ~   vibrato
| +   harmonic
| x   Mute note
| b   Bend
| pb  Pre-bend
| br  Bend release
| pbr Pre-bend release
| brb Bend release bend

************************************

Tap to rate this tab
# A B C D E F G H I J K L M N O P Q R S T U V W X Y Z