Song name
# A B C D E F G H I J K L M N O P Q R S T U V W X Y Z

The Getaway Plan - Streetlight tab

============================================================================
                  STREETLIGHT - The Getaway Plan

Tabbed by: El Doof
Email: lets_set_the_stage_on_fire@hotmail.com

Tuning: Drop C (C, G, c, F, A, D)

*I doubt it's 100% right, but it's about as close as I can get at the moment. The song 
band are incredible, I highly recommend them. Enjoy.


MAIN RIFF/CHORUS

Guitar 1

x2 (Heavy Distortion)
D||--------------------------------------------------|
A||--------------------------------------------------|
F||--------------------------------------------------|
c||--7---------3---------0---------3--------5--------|
G||--7--(x16)--3--(x16)--0--(x16)--3--(x8)--5--(x8)--|
C||--7---------3---------0---------3--------5--------|

Guitar 2

x2 (Heavy Distortion)
D||-----------------------------------------------|
A||-----------------------------------------------|
F||--9---------12--------14--------12/-14---------|
c||--x---------x---------x----------x--x----------|
G||--7--(x16)--10--(x4)--12--(x3)--10/-12--(x16)--|
C||-----------------------------------------------|

D|-------------------------------------------|
A|-------------------------------------------|
F|--12--------9--------7/-9--------12--------|
c|--x---------x--------x--x--------x---------|
G|--10--(x4)--7--(x3)--5/-7--(x8)--10--(x4)--|
C|-------------------------------------------|

D|---------------------------|
A|---------------------------|
F|--14---------12--------7/--|
c|--x----------x---------x---|
G|--12--(x12)--10--(x8)--5/--|
C|---------------------------|

Guitar 3 (Second time)

x1 (Clean)
D|--------------------------------------------------------------|
A|--------------------------------------------------------------|
F|--------------------------------------------------------------|
c|--------------------------------------------------------------|
G|---------------/7~--/5--3--2/3~--/3--/5--/7~--/12--\10--/12~--|
C|--7~--9/--10~-------------------------------------------------|


VERSE 1

x1 (Clean)
D|-------------------------------------------------------------|
A|-------------------------------------------------------------|
F|-------------------------------------------------------------|
c|--10~----9h10~--10-12-10-7h9--9/10--9--7~--/10--9--7--6--7~--|
G|-------------------------------------------------------------|
C|-------------------------------------------------------------|

D|---------------------------------------------------------|
A|---------------------------------------------------------|
F|---------------------------------------------------------|
c|--10~----10~--10-12-10-12-/14~--12-10~--9h10~--/10~--9~--|
G|---------------------------------------------------------|
C|---------------------------------------------------------|

Excuse me there, could someone take this broken bottle,
And explain to me, explain to me,
All the reasons why we've come undone,
And why the streetlight couldn't hold anyone,
If there was reason in eternity,
Then all the forces in this place would bring you back to me.


PRE-CHORUS

x1 (Distortion)
D|--x-x------------x------------x-x----------------|
A|--x-x------------x------------x-x---x---x--------|
F|--x-x-5--5\4/5\4-x-5--5\4/5\4-x-x-7-x-9-x-12/14--|
c|--x-x-x--x-x-x-x-x-x--x-x-x-x-x-x-x-x-x-x-x--x---|
G|--x-x-3--3\2/3\2-x-3--3\2/3\2-x-x-5-x-7-x-10/12--|
C|--x-x------------x------------x-x---x---x--------|
PM  . .            .            . .   .   .

*I really struggled to hear all the octaves in this part, they're played in quick 
I'll complete this later.

But if you see me coming up again,
I will never spend,
A day without you in my head, in my...


CHORUS x1

But if we crawl in to the morning we will never see the light,
And if we leave it up to fate then we could fall in love tonight.
And if you spend another minute trying to find out what it's worth,
You could sweep me off my feet and you could bring me down to earth.


VERSE 2

Guitar 1

x2 (Heavy Distortion)
D|-------------------------------------------|
A|-------------------------------------------|
F|-------------------------------------------|
c|--7\----5h7\----5h7\----5h7-7-7-7-x-5-5-5--|
G|--7\----5h7\----5h7\----5h7-7-7-7-x-5-5-5--|
C|--7\----5h7\----5h7\----5h7-7-7-7-x-5-5-5--|

D|-------------------------------------------|
A|-------------------------------------------|
F|-------------------------------------------|
c|--3\----2h3\----2h3\----2h3-3-3-3-x-5-5-5--|
G|--3\----2h3\----2h3\----2h3-3-3-3-x-5-5-5--|
C|--3\----2h3\----2h3\----2h3-3-3-3-x-5-5-5--|

GUITAR 2

(Distortion)

x3
D|---------------------------|
A|--------13----12-----------|
F|--14-14----14----14-12h14--|
c|---------------------------|
G|---------------------------|
C|---------------------------|
PM  .   .     .     .

x1
D|---------------------------|
A|--------13----15----12-----|
F|--14-14----14----14----14--|
c|---------------------------|
G|---------------------------|
C|---------------------------|
PM   .  .     .     .     .

x3
D|---------------------------|
A|--------12----13----10-----|
F|--10-10----10----10----12--|
c|---------------------------|
G|---------------------------|
C|---------------------------|
PM   .  .     .     .     .

x1
D|----------------------------------------------|
A|--------12-------13----13--------12----13-12--|
F|--10-10----10-10----10-----12-12----12--------|
c|----------------------------------------------|
G|----------------------------------------------|
C|----------------------------------------------|
PM  .  .     .  .     .      .  .     .

Now wait a minute here's the punch line,
And if you want this to be special then you'd better keep it to yourself,
Yourself, yourself, yourself.
Now wait a minute here's the second time,
And if you want this to be special then you'd better keep it to yourself,
Yourself, yourself and your health.


PRE-CHORUS x1


CHORUS x1


INTERLUDE

Guitar 1

x4 (Heavy Distortion)
D|-------------------------------------------------------------------|
A|-------------------------------------------------------------------|
F|-------------------------------------------------------------------|
c|--7-------------------------------3---------------0----------------|
G|--7-7-7-7-7-7-7-7-7-7-7-7-7-7-7-7-3-3-3-3-3-3-3-3-0-0-0-0-0-0-0-0--|
C|--7-7-7-7-7-7-7-7-7-7-7-7-7-7-7-7-3-3-3-3-3-3-3-3-0-0-0-0-0-0-0-0--|
PM    . . . . . . . . . . . . . . .   . . . . . . .   . . . . . . .

Guitar 2

x1 (Distortion)
D|-----------12~-------------12~------------------|
A|--10-13-10--------10-13-10--------10-13-10------|
F|-------------------------------------------12~--|
c|------------------------------------------------|
G|------------------------------------------------|
C|------------------------------------------------|

D|-----------12-----12s15--12--------------12------------|
A|--10-13-10-----10-----------13--10-13-10-----13-10-----|
F|---------------------------------------------------12--|
c|-------------------------------------------------------|
G|-------------------------------------------------------|
C|-------------------------------------------------------|

D|-----------12~-------------12~------------------|
A|--10-13-10--------10-13-10--------10-13-10------|
F|-------------------------------------------12~--|
c|------------------------------------------------|
G|------------------------------------------------|
C|------------------------------------------------|

D|-----------12-----12/15--12----12hb13--(tremelo)--|
A|--10-13-10-----10-----------13~-------------------|
F|--------------------------------------------------|
c|--------------------------------------------------|
G|--------------------------------------------------|
C|--------------------------------------------------|

Now wait a minute here's the punch line...
Now wait a minute here's the punch line...
Now wait a minute here's the punch line...
Now wait a minute here's the breakdown!


BREAKDOWN

Guitar 1

x4 (Heavy distortion)
D|------------------------------|
A|------------------------------|
F|------------------------------|
c|--7---------3--------0--------|
G|--7--(x16)--3--(x8)--0--(x8)--|
C|--7---------3--------0--------|

Guitar 2

x1 (Heavy Distortion)
D|--17p5h8p5--(x8)--15p5h8p5--(x4)--13p5h8p5--(x4)--|
A|--------------------------------------------------|
F|--------------------------------------------------|
c|--------------------------------------------------|
G|--------------------------------------------------|
C|--------------------------------------------------|


D|--12p0h3p0--(x8)--13p0h3p0--(x4)--10p0h3p4--(x4)--|
A|--------------------------------------------------|
F|--------------------------------------------------|
c|--------------------------------------------------|
G|--------------------------------------------------|
C|--------------------------------------------------|


PRE-CHORUS x1


CHORUS x1


OUTRO

Guitar 1

x1
D|------------------------------||
A|------------------------------||
F|------------------------------||
c|--7\----5h7\----5h7\----5h7\--||
G|--7\----5h7\----5h7\----5h7\--||
C|--7\----5h7\----5h7\----5h7\--||

Guitar 2

x1
D|--------------------------------||
A|--------13----12----------------||
F|--14-14----14----14-12h14--14\--||
c|--------------------------------||
G|--------------------------------||
C|--------------------------------||
PM  .   .     .     .

Now wait a minute here's the punch line...
No, we're out of time again.


| /  slide up
| \  slide down
| h  hammer-on
| p  pull-off
| ~  vibrato
| +  harmonic
| x  Mute note
| PM Palm-mute note
| hb half bend
| b  full bend


============================================================================
Tap to rate this tab
# A B C D E F G H I J K L M N O P Q R S T U V W X Y Z