Guitaretab - guitar tabs
Song name
# A B C D E F G H I J K L M N O P Q R S T U V W X Y Z

The Getaway Plan - Where The City Meets The Sea tab

Tabbed By: Gibbsy87

Guitar 1
Intro/Verse/Chorus/End
E---------------------------------------------------------------------|
B---------------------------------------------------------------------|
G7-7-7-7-7-7-7-7-9-9-9-9-9-9-9-9-3-3-3-3-3-3-3-3-9-9-9-9-9-9-9-9--|
D7-7-7-7-7-7-7-7-9-9-9-9-9-9-9-9-4-4-4-4-4-4-4-4-9-9-9-9-9-9-9-9--|
A5-5-5-5-5-5-5-5-7-7-7-7-7-7-7-7-4-4-4-4-4-4-4-4-7-7-7-7-7-7-7-7--|
E-----------------------------------2-2-2-2-2-2-2-2-------------------|

E--------------------------------------------------------------------------|
B--------------------------------------------------------------------------|
G7-7-7-7-7-7-7-7-9-9-9-9-9-9-9-9-3-3-3-3-3-3-3-3-3-3-3-3-3-3-3-3----7*--|
D7-7-7-7-7-7-7-7-9-9-9-9-9-9-9-9-4-4-4-4-4-4-4-4-4-4-4-4-4-4-4-4----7*--|
A5-5-5-5-5-5-5-5-7-7-7-7-7-7-7-7-4-4-4-4-4-4-4-4-4-4-4-4-4-4-4-4----5*--|
E-----------------------------------2-2-2-2-2-2-2-2-2-2-2-2-2-2-2-2--------|

Guitar 2
Intro
E-------------------------------------------------------------------|
B14-----17-----14-----17-----17----14-----17-----17------17----14--|
G---14-----14-----14-----14-----14----14-----14-----14-------14-----|
D-----14-----14-----14-----14-----14----14-----14-----14------------|
A-------------------------------------------------------------------|
E-------------------------------------------------------------------|
Chorus
E---------------------------------------------------------------------|
B-------------7-7--------------7-7--------------7-7-------------------|
G6-6-6-9-9-9------6-6-6-9-9-9------6-6-6-9-9-9------6-6-6-4-4-4-2-2--|
D---------------------------------------------------------------------|
A---------------------------------------------------------------------|
E---------------------------------------------------------------------|

Verse 1
E--------------------------------14------------|
B14---14---14---14-------14--------14-----14--|
G---14---14---14---14--------14--------14------|
D----------------------14----------------------| X4
A----------------------------------------------|
E----------------------------------------------|

Then
E-------------|
B-14*-12*-9*--|
G-------------|
D-------------|
A-------------|
E-------------|

Chorus
E---------------------------------------------------------------------|
B-------------7-7--------------7-7--------------7-7-------------------|
G6-6-6-9-9-9------6-6-6-9-9-9------6-6-6-9-9-9------6-6-6-4-4-4-2-2--|
D---------------------------------------------------------------------|
A---------------------------------------------------------------------|
E---------------------------------------------------------------------|
[ Tab from: http://www.guitaretab.com/t/the-getaway-plan/105053.html ]
E------------------------------------------------------------------|
B-------------7-7--------------7-7--------------7-7---9-9-9-7-7-7--|
G6-6-6-9-9-9------6-6-6-9-9-9-------6-6-6-9-9-9-------------------|
D------------------------------------------------------------------|
A------------------------------------------------------------------|
E------------------------------------------------------------------|

Verse 2
E-----------------------------------|
B-------------17-15-14-15-17-15-14--|
G13h14-13h14-----------------------|
D-----------------------------------|
A-----------------------------------|
E-----------------------------------|

Chorus
E---------------------------------------------------------------------|
B-------------7-7--------------7-7--------------7-7-------------------|
G6-6-6-9-9-9------6-6-6-9-9-9------6-6-6-9-9-9------6-6-6-4-4-4-2-2--|
D---------------------------------------------------------------------|
A---------------------------------------------------------------------|
E---------------------------------------------------------------------|

E------------------------------------------------------------------|
B-------------7-7--------------7-7--------------7-7---9-9-9-7-7-7--|
G6-6-6-9-9-9------6-6-6-9-9-9-------6-6-6-9-9-9-------------------|
D------------------------------------------------------------------|
A------------------------------------------------------------------|
E------------------------------------------------------------------|

Verse 3
E-----------------------------------|
B-------------17-15-14-15-17-15-14--|
G13h14-13h14-----------------------|
D-----------------------------------|  X2
A-----------------------------------|
E-----------------------------------|

Solo Part 1
E---------------------------------------------------|
B-------------------12-12--------------------12-12--|
G13-13-13-14-14-14--------13-13-13-14-14-14--------|
D---------------------------------------------------| X4
A---------------------------------------------------|
E---------------------------------------------------|
Solo Part 2
E--------------------------------------------------|
B15-15-15-14-14-14-14-14-15-15-15-14-14-14-17-17--|
G--------------------------------------------------|
D--------------------------------------------------|  X2
A--------------------------------------------------|
E--------------------------------------------------|
Solo Part 3
E17-17-17-16-16-16---------17-17-17-16-16-16---------17-17-17-16-16-16--------------------|
B--------------------17-17--------------------17-17---------------------17-17-15-15-15-14--|
G------------------------------------------------------------------------------------------|
D------------------------------------------------------------------------------------------|
A------------------------------------------------------------------------------------------|
E------------------------------------------------------------------------------------------|
Related for Where The City Meets The Sea tab