Song name
# A B C D E F G H I J K L M N O P Q R S T U V W X Y Z

The Getaway Plan - Sleep Spindles tab

Artist: The Getaway Plan
Title: Sleep Spindles
Tab: Tim Hayes

This is another track off The Getaway Plans debut album
top band, support them... www.myspace.com/thegetawayplanrock


Most of their songs are in C tuning, i tabbed out
"where the city meets the sea" in D tuning because they
don't use the OPEN C chord so it's easier to just tune down
to D rather than having to tune down all the strings.

____________________________________________________________________________
Intro

D|--------------------------------|
A|--------------------------------|
F|-----------------55555555-------|
C|-2222222222224-5-555555550-05-0-| x4
G|-2222222222224-5-333333330-05-0-|
C|-2222222222224-5---------0-05-0-|


VERSE(clean)

-----------------------------------------------------------2--2--3--3--2--2--|
-----3--5--5--5--5--5--5--5--5--5--5--5--3--3--5--5--5--5--------------------|
---4-------------------------------------------------------------------------|
-2----2--2--2--2--2--2--2--2--2--2--2--2--2--2--2--2--2--2--2--2--2--2--2--2-|
-----------------------------------------------------------------------------|
-----------------------------------------------------------------------------|

(continued)
---------------------------|
-5--5--5--5--3--3h5--5--5--|
---------------------------|
--2--2--2--2--2----2--2----|
---------------------------|
---------------------------|

PRE CHORUS

D|--------------------------------------|
A|-------------------------5555-5555----|
F|-----5~--------------5~--4444-4444----|
C|-2-5-5~--2-5-0~--2-5-5~--2222-2222----|
G|-2-5-3~--2-5-0~--2-5-3~--2222-2222----|
C|-2-5-----2-5-0~--2-5-----2222-2222----|

____________________________________________________________________________

CHORUS

Guitar One

D|--------------------|-------------------------|
A|--------------5-----|-------------------------|
F|-10----12-----4-----|----10----12-----9-------|
C|-8-----10-----2-----|----8-----10-----7-------|
G|-8-x16-10-x16-2-x32-|----8-x16-10-x16-7-x32---|
C|-8-----10-----2-----|----8-----10-----7-------|

Guitar Two(comes in with 2nd half of the chorus)

D|---------------------------------------------------------|
A|---------------------------------------------------------|
F|--9-------11-----12------11----7---------9------7--------|
C|--x-------x------x-------x-----x---------x------x--------|
G|--7-x12---9-x4---10-x8---9-x4--5-x4------7-x12--5-x4-----|
C|---------------------------------------------------------|

____________________________________________________________________________

Post Chorus

D|--------------------------------|
A|--------------------------------|
F|--------------------------------|
C|--------------------------------| x 1
G|-----------------33333333-------|
C|-2222222222224-5---------00000--|

then

D|--------------------------------|
A|--------------------------------|
F|-----------------55555555-------|
C|-2222222222224-5-555555550-05-0-| x 4
G|-2222222222224-5-333333330-05-0-|
C|-2222222222224-5---------0-05-0-|

pre chorus

D|--------------------------------------|
A|-------------------------5555-5555----|
F|-----5~--------------5~--4444-4444----|
C|-2-5-5~--2-5-0~--2-5-5~--2222-2222----|
G|-2-5-3~--2-5-0~--2-5-3~--2222-2222----|
C|-2-5-----2-5-0~--2-5-----2222-2222----|

____________________________________________________________________________

CHORUS

Guitar One

D|--------------------|-------------------------|
A|--------------5-----|-------------------------|
F|-10----12-----4-----|----10----12-----9-------|
C|-8-----10-----2-----|----8-----10-----7-------|
G|-8-x16-10-x16-2-x32-|----8-x16-10-x16-7-x32---|
C|-8-----10-----2-----|----8-----10-----7-------|

Guitar Two(comes in with 2nd half of the chorus)

D|---------------------------------------------------------|
A|---------------------------------------------------------|
F|--9-------11-----12------11----7---------9------7--------|
C|--x-------x------x-------x-----x---------x------x--------|
G|--7-x12---9-x4---10-x8---9-x4--5-x4------7-x12--5-x4-----|
C|---------------------------------------------------------|

FILL

D|-------------------------|
A|-------------------------|
F|-------------------------|
C|-2--2--2--2--------2~~~--|
G|-2--2--2--2--------2~~~--|
C|-2--2--2--2--------2~~~--|

____________________________________________________________________________

INTERLUDE

-19---------------------------------19-------------------20-------------|
----17--20--19--17-15------------------17--20--19--17-15----17--20--19~-|
----------------------16--14--12~---------------------------------------|x 2
------------------------------------------------------------------------|
------------------------------------------------------------------------|
------------------------------------------------------------------------|


THEN (with wahhh)

|--10-x16---12-x16--10-x32----10-x16---12-x16--10-x32-----|
|---------------------------------------------------------|
|---------------------------------------------------------|
|---------------------------------------------------------|
|---------------------------------------------------------|
|---------------------------------------------------------|


___________________________________________________________________________

CHORUS x 2 (2nd time through come in with Guitar Three)

Guitar Three(this whole thing twice) but use alternate part 2 2nd time

PART 1                                 PART 2
-191919----------------------------|  |-202020---------------------------|
-------17171720202019191917171515--|  |-------17171720202019191917171515-|
-----------------------------------|  |----------------------------------|
-----------------------------------|x3|----------------------------------|
-----------------------------------|  |----------------------------------|
-----------------------------------|  |----------------------------------|

ALTERNATE PART 2
----------------------------------|
20202019191917171719191920201919--|
----------------------------------|
----------------------------------|
----------------------------------|
----------------------------------|

------------------|
-20~~~~~~~~~~~----|
------------------|
------------------|
------------------|
------------------|

____________________________________________________________________________

thats it, rate it, comment...any questions just ask...
and if you like these tabs and want me to tab out other songs by
the getaway plan just let me know...
cheers

www.myspace.com/hayzofrioteous
Tap to rate this tab
# A B C D E F G H I J K L M N O P Q R S T U V W X Y Z