Song name
# A B C D E F G H I J K L M N O P Q R S T U V W X Y Z

The Getaway Plan - The New Year tab

Help us improve GuitareTab! Take a short survey!
----------------------------------------------------------------------------
		     THE NEW YEAR - The Getaway Plan                
----------------------------------------------------------------------------

Tabbed by: El Doof
Email: lets_set_the_stage_on_fire@hotmail.com

Album: Hold Conversation
Track: 4

Tuning: Drop C#


Simply put, this song kicks ass.
I'll be adding the parts in the bridge and one of the 
solos that I couldn't figure out right away as soon as 
I get them. I'll also be tabbing as much of the EP as 
possible, including an updated version of If The 
Suspense Doesn't Kill Us.

Enjoy =]


Guitar 1: Benny Chong
Guitar 2: Clint Splattering


INTRO

Guitar 1

x2 (Heavy Distortion)
D#||----------------------------------|--------------------------|
A#||----------------------------------|--------------------------|
F#||--14--14--14--14--14--14--14--14--|--9--9--9--9--9--9--9--9--|
c#||--x---x---x---x---x---x---x---x---|--x--x--x--x--x--x--x--x--|
G#||--12--12--12--12--12--12--12--12--|--7--7--7--7--7--7--7--7--|
C#||----------------------------------|--------------------------|

D#|----------------------------------|----------------------------------|
A#|----------------------------------|--13--13--13--13--15--15----------|
F#|--17--17--17--17--17--17--17--17--|--17--17--17--17--17--17--17--17--|
c#|--x---x---x---x---x---x---x---x---|--x---x---x---x---x---x---x---x---|
G#|--15--15--15--15--15--15--15--15--|--15--15--15--15--15--15--15--15--|
C#|----------------------------------|----------------------------------|

x1 (Heavy Distortion)
D#|----------------------------------|----------------------------|
A#|----------------------------------|----------------------------|
F#|--14--14--14--14------------------|--14--14--14--14----14--\9--|
c#|--x---x---x---x-------------------|--x---x---x---x-----x----x--|
G#|--12--12--12--12------------------|--12--12--12--12----12--\7--|
C#|----------------------------------|----------------------------|

D#|----------------------------------|----------------------------------|
A#|----------------------------------|----------------------------------|
F#|--17--17--17--17--17--17--17--17--|--17--17--17--17--17--17--17--17--|
c#|--x---x---x---x---x---x---x---x---|--x---x---x---x---x---x---x---x---|
G#|--15--15--15--15--15--15--15--15--|--15--15--15--15--15--15--15--15--|
C#|----------------------------------|----------------------------------|

x1 (Heavy Distortion)
D#|----------------------------------|--------------------------|
A#|----------------------------------|--------------------------|
F#|--14--14--14--14--14--14--14--14--|--9--9--9--9--9--9--9--9--|
c#|--x---x---x---x---x---x---x---x---|--x--x--x--x--x--x--x--x--|
G#|--12--12--12--12--12--12--12--12--|--7--7--7--7--7--7--7--7--|
C#|----------------------------------|--------------------------|

D#|----------------------------------|----------------------------------|
A#|----------------------------------|----------------------------------|
F#|--17--17--17--17--17--17--17--17--|--17--17--17--17--17--17--17--17--|
c#|--x---x---x---x---x---x---x---x---|--x---x---x---x---x---x---x---x---|
G#|--15--15--15--15--15--15--15--15--|--15--15--15--15--15--15--15--15--|
C#|----------------------------------|----------------------------------|

Guitar 2

x2 (Heavy Distortion)
D#||--------------------------|--------------------------|
A#||--------------------------|--------------------------|
F#||--5--5--5--5--5--5--5--5--|--5--5--5--5--5--5--5--5--|
c#||--3--3--3--3--3--3--3--3--|--3--3--3--3--3--3--3--3--|
G#||--3--3--3--3--3--3--3--3--|--3--3--3--3--3--3--3--3--|
C#||--3--3--3--3--3--3--3--3--|--3--3--3--3--3--3--3--3--|

D#|--------------------------|--------------------------|
A#|--------------------------|--------------------------|
F#|--9--9--9--9--9--9--9--9--|--9--9--9--9--9--9--7--7--|
c#|--7--7--7--7--7--7--7--7--|--7--7--7--7--7--7--5--5--|
G#|--7--7--7--7--7--7--7--7--|--7--7--7--7--7--7--5--5--|
C#|--7--7--7--7--7--7--7--7--|--7--7--7--7--7--7--5--5--|

x1 (Heavy Distortion)
D#|--------------------------|---------------------------|
A#|--------------------------|---------------------------|
F#|--5--5--5--5--------------|--5--5--5--5--------5--\4--|
c#|--3--3--3--3--------------|--3--3--3--3--------3--\2--|
G#|--3--3--3--3--------------|--3--3--3--3--------3--\2--|
C#|--3--3--3--3--------------|--3--3--3--3--------3--\2--|

D#|--------------------------|--------------------------|
A#|--------------------------|--------------------------|
F#|--9--9--9--9--9--9--9--9--|--9--9--9--9--9--9--7--7--|
c#|--7--7--7--7--7--7--7--7--|--7--7--7--7--7--7--5--5--|
G#|--7--7--7--7--7--7--7--7--|--7--7--7--7--7--7--5--5--|
C#|--7--7--7--7--7--7--7--7--|--7--7--7--7--7--7--5--5--|

x1 (Heavy Distortion)
D#|--------------------------|--------------------------|
A#|--------------------------|--------------------------|
F#|--5--5--5--5--5--5--5--5--|--5--5--5--5--5--5--5--5--|
c#|--3--3--3--3--3--3--3--3--|--3--3--3--3--3--3--3--3--|
G#|--3--3--3--3--3--3--3--3--|--3--3--3--3--3--3--3--3--|
C#|--3--3--3--3--3--3--3--3--|--3--3--3--3--3--3--3--3--|

D#|--------------------------|--------------------------|
A#|--------------------------|--------------------------|
F#|--9--9--9--9--9--9--9--9--|--9--9--9--9--9--9--7--7--|
c#|--7--7--7--7--7--7--7--7--|--7--7--7--7--7--7--5--5--|
G#|--7--7--7--7--7--7--7--7--|--7--7--7--7--7--7--5--5--|
C#|--7--7--7--7--7--7--7--7--|--7--7--7--7--7--7--5--5--|

Touch me,
You'd never touched me,
You'd never.
Your silver smile has once again controlled me.

VERSE 1 

Guitar 1

x2 (Heavy Distortion)
D#|-----------------------------------|
A#|-----------------------------------|
F#|--5-x-5-x-5-x-5-x-5-x-5-x-5-x-7-x--|
c#|--3-x-3-x-3-x-3-x-3-x-3-x-3-x-5-x--|
G#|--3-x-3-x-3-x-3-x-3-x-3-x-3-x-5-x--|
C#|--3-x-3-x-3-x-3-x-3-x-3-x-3-x-5-x--|
PM     .   .   .   .   .   .   .   .

D#|-----------------------------------|
A#|-----------------------------------|
F#|--9-x-9-x-9-x-9-x-9-x-9-x-9-x-7-x--|
c#|--7-x-7-x-7-x-7-x-7-x-7-x-7-x-5-x--|
G#|--7-x-7-x-7-x-7-x-7-x-7-x-7-x-5-x--|
C#|--7-x-7-x-7-x-7-x-7-x-7-x-7-x-5-x--|
PM     .   .   .   .   .   .   .   .

x2 (Heavy Distortion)
D#|--------------------------|--------------------------|
A#|--------------------------|--------------------------|
F#|--------------------------|--------------------------|
c#|--------------------------|--------------------------|
G#|--3--3--3--3--3--3--3--3--|--3--3--3--3--3--5--5--5--|
C#|--3--3--3--3--3--3--3--3--|--3--3--3--3--3--5--5--5--|
PM   .  .  .  .  .  .  .  .     .  .  .  .  .  .  .  . 

D#|--------------------------|--------------------------|
A#|--------------------------|--------------------------|
F#|--------------------------|--------------------------|
c#|--------------------------|--------------------------|
G#|--7--7--7--7--7--7--7--7--|--7--7--7--7--7--5--5--5--|
C#|--7--7--7--7--7--7--7--7--|--7--7--7--7--7--5--5--5--|
PM   .  .  .  .  .  .  .  .     .  .  .  .  .  .  .  .

x1 (Heavy Distortion w/ Wah FX)
D#|------------------------------|------------------------------|
A#|------------------------------|--12h13--12h13--12h13--12h13--|
F#|------------------------------|------------------------------|
c#|--BREAK-----------------------|------------------------------|
G#|------------------------------|------------------------------|
C#|------------------------------|------------------------------|

Guitar 2

x4 (Heavy Distortion)
D#|----------------------------------|
A#|--5-x-5-x-5-x-5-x-5-x-5-x-5----5--|
F#|--5-x-5-x-5-x-5-x-5-x-4-x-5p4--4--|
c#|----------------------------------|
G#|----------------------------------|
C#|----------------------------------|

x8 (Heavy Distortion)
D#|----------------9------------|
A#|--13-----12-----------12h13--|
F#|------9------9-----9---------|
c#|-----------------------------|
G#|-----------------------------|
C#|-----------------------------|

x1 (Heavy Distortion)
D#|------------------------------|------------------------------|
A#|--12h13--12h13--12h13--12h13--|--12h13--12h13--12h13--12h13--|
F#|------------------------------|------------------------------|
c#|------------------------------|------------------------------|
G#|------------------------------|------------------------------|
C#|------------------------------|------------------------------|

No need to put this on me,
You are the one and only thing I need,
Trust in me,
I'll show you things you've never seen.

This town never felt the same,
Since the sun went down I don't feel so safe.
Your face is such a mess,
and the wine on your breath shows gracelessness.

So deceiving...


CHORUS 1

Guitar 1

x4 (Heavy Distortion)
D#|-----------------------|----------------------------|
A#|-----------------------|----------------------------|
F#|--5--5--5--5--5-x-5-x--|--5--5--5-x-5--5/--7-x-7-x--|
c#|--3--3--3--3--3-x-3-x--|--3--3--3-x-3--3/--5-x-5-x--|
G#|--3--3--3--3--3-x-3-x--|--3--3--3-x-3--3/--5-x-5-x--|
C#|--3--3--3--3--3-x-3-x--|--3--3--3-x-3--3/--5-x-5-x--|
PM                 .   .             .          .   .

D#|-----------------------|----------------------------|
A#|-----------------------|----------------------------|
F#|--9--9--9--9--9-x-9-x--|--9--9--9-x-9--5\--7-x-7-x--|
c#|--7--7--7--7--7-x-7-x--|--7--7--7-x-7--7\--5-x-5-x--|
G#|--7--7--7--7--7-x-7-x--|--7--7--7-x-7--7\--5-x-5-x--|
C#|--7--7--7--7--7-x-7-x--|--7--7--7-x-7--7\--5-x-5-x--|
PM                 .   .             .          .   .

Guitar 2

x4 (Heavy Distortion) 
D#|--12--12--12--12--12-x-12--12--12--|--12--12--12--12-x-12-x-12--15--|
A#|--10--10--10--10--10-x-10--10------|--10--10--10--10-x-10-x-10------|
F#|--9---9---9---9---9--x-9---9-------|--9---9---9---9--x-9--x-9-------|
c#|-----------------------------------|--------------------------------|
G#|-----------------------------------|--------------------------------|
C#|-----------------------------------|--------------------------------|

Let it go, your hands are right in front of me,
Cracking up and the sounds of the New Year saviour,
Pen and paper,
This is what I get.


VERSE 2

Guitar 1

x2 (Heavy Distortion)
D#|-----------------------------------|
A#|-----------------------------------|
F#|--5-x-5-x-5-x-5-x-5-x-5-x-5-x-7-x--|
c#|--3-x-3-x-3-x-3-x-3-x-3-x-3-x-5-x--|
G#|--3-x-3-x-3-x-3-x-3-x-3-x-3-x-5-x--|
C#|--3-x-3-x-3-x-3-x-3-x-3-x-3-x-5-x--|
PM     .   .   .   .   .   .   .   .

D#|-----------------------------------|
A#|-----------------------------------|
F#|--9-x-9-x-9-x-9-x-9-x-9-x-9-x-7-x--|
c#|--7-x-7-x-7-x-7-x-7-x-7-x-7-x-5-x--|
G#|--7-x-7-x-7-x-7-x-7-x-7-x-7-x-5-x--|
C#|--7-x-7-x-7-x-7-x-7-x-7-x-7-x-5-x--|
PM     .   .   .   .   .   .   .   .

x1 (Heavy Distortion)
D#|-----------------x--x--x--|--------------------------|
A#|-----------------x--x--x--|--------------------------|
F#|--5--5--5--5--5--x--x--x--|--5--5--5--5--5--7--7--7--|
c#|--3--3--3--3--3--x--x--x--|--3--3--3--3--3--5--5--5--|
G#|--3--3--3--3--3--x--x--x--|--3--3--3--3--3--5--5--5--|
C#|--3--3--3--3--3--x--x--x--|--3--3--3--3--3--5--5--5--|

D#|-----------------x--x--x--|--------------------------|
A#|-----------------x--x--x--|--------------------------|
F#|--9--9--9--9--9--x--x--x--|--9--9--9--9--9--7--7--7--|
c#|--7--7--7--7--7--x--x--x--|--7--7--7--7--7--5--5--5--|
G#|--7--7--7--7--7--x--x--x--|--7--7--7--7--7--5--5--5--|
C#|--7--7--7--7--7--x--x--x--|--7--7--7--7--7--5--5--5--|

D#|-----------------x--x--x--|--------------------------|
A#|-----------------x--x--x--|--------------------------|
F#|--5--5--5--5--5--x--x--x--|--5--5--5--5--5--7--7--7--|
c#|--3--3--3--3--3--x--x--x--|--3--3--3--3--3--5--5--5--|
G#|--3--3--3--3--3--x--x--x--|--3--3--3--3--3--5--5--5--|
C#|--3--3--3--3--3--x--x--x--|--3--3--3--3--3--5--5--5--|

D#|--------------------------|--------------------------|
A#|--------------------------|--------------------------|
F#|--------------------------|--9--9--9--9--5*----------|
c#|--------------------------|--7--7--7--7--5*----------|
G#|--7--7--7--7--7--7--7--7--|--7--7--7--7--------------|
C#|--7--7--7--7--7--7--7--7--|--7--7--7--7--------------|
PM   .  .  .  .  .  .  .  .

Guitar 2

x4 (Heavy Distortion)
D#|----------------------------------|
A#|--5-x-5-x-5-x-5-x-5-x-5-x-5----5--|
F#|--5-x-5-x-5-x-5-x-5-x-4-x-5p4--4--|
c#|----------------------------------|
G#|----------------------------------|
C#|----------------------------------|

x6 (Heavy Distortion)
D#|----------------9------------|
A#|--13-----12-----------12h13--|
F#|------9------9-----9---------|
c#|-----------------------------|
G#|-----------------------------|
C#|-----------------------------|

x1 (Heavy Distortion)
D#|------------------------------|------------------------------|
A#|--12h13--12h13--12h13--12h13--|--12h13--12h13--12h13--12h13--|
F#|------------------------------|------------------------------|
c#|------------------------------|------------------------------|
G#|------------------------------|------------------------------|
C#|------------------------------|------------------------------|

No need to do this baby,
The sex it drives me crazy.
You begin to break me in,
Tell me what you need.

So you throw it away,
All this f*cking dismay,
And now you're back in your skin.

FIRST CHORUS x1


SECOND CHORUS

Guitar 1 

x2 (Heavy Distortion)
D#|-------------------------|--------------------------|
A#|-------------------------|--------------------------|
F#|--5--5--5--5----5--5--5--|--5--5--5--5----5/--7--7--|
c#|--3--3--3--3----3--3--3--|--3--3--3--3----3/--5--5--|
G#|--3--3--3--3----3--3--3--|--3--3--3--3----3/--5--5--|
C#|--3--3--3--3----3--3--3--|--3--3--3--3----3/--5--5--|
                                                         
D#|-------------------------|----------------------------|
A#|-------------------------|----------------------------|
F#|--9--9--9--9----9--9--9--|--9--9--9--9--9-------------|
c#|--7--7--7--7----7--7--7--|--7--7--7--7--7-------------|
G#|--7--7--7--7----7--7--7--|--7--7--7--7--7-------------|
C#|--7--7--7--7----7--7--7--|--7--7--7--7--7-------------|
                            
Guitar 2

x2 (Heavy Distortion)
D#|------------------10-------------|
A#|--13------12--------------12h13--|
F#|------10------10------10---------|
c#|---------------------------------|
G#|---------------------------------|
C#|---------------------------------|

D#|------------------12-------------|
A#|--15------13--------------13h15--|
F#|------12------12------12---------|
c#|---------------------------------|
G#|---------------------------------|
C#|---------------------------------|

D#|--15--17--15--0--12--13--12--0--10--12--10--0--8--10--8--|
A#|---------------------------------------------------------|
F#|---------------------------------------------------------|
c#|---------------------------------------------------------|
G#|---------------------------------------------------------|
C#|---------------------------------------------------------|


BRIDGE 1

Guitar 1

x2 (Clean)
D#|-----------3-----------|--------8~---------------|
A#|--------------5~-------|-------------------------|
F#|-----------------------|-----9-------------------|
c#|--------5--------------|-------------------------|
G#|-----3-----------------|--------------5--5s7s5~--|
C#|--3---------------3s5--|--7----------------------|

D#|-----------3-----------|-----7~------------------|
A#|--------------5~-------|-----8~------------------|
F#|-----------------------|-----9~------------------|
c#|--------5--------------|-----7~------------------|
G#|-----3-----------------|-----7~------------------|
C#|--3---------------3s5--|--7--7~------------------|

Guitar 2

(Coming soon)

There will be terror at the sight of this...
There will be terror at the sight of this...


BRIDGE PART 2

Guitar 1

x2 (Heavy Distortion)
D#|-------------------|-------------------|
A#|-------------------|-------------------|
F#|--5--5--5--5--5----|--9--9--9--9--9----|
c#|--3--3--3--3--3----|--7--7--7--7--7----|
G#|--3--3--3--3--3----|--7--7--7--7--7----|
C#|--3--3--3--3--3----|--7--7--7--7--7----|

Guitar 2

x2 (Heavy Distortion)
D#|---------------------------------------------|
A#|-----------------6--6--6----6--6--6----6--6--|
F#|-----------------9--9--9----9--9--9----9--9--|
c#|--3--3--3--3--3------------------------------|
G#|--3--3--3--3--3------------------------------|
C#|--3--3--3--3--3------------------------------|

D#|---------------------------------------------------------|
A#|-----------------14--14--14----14--14--14----14--14--14--|
F#|-----------------17--17--17----17--17--17----17--17--17--|
c#|--7--7--7--7--7------------------------------------------|
G#|--7--7--7--7--7------------------------------------------|
C#|--7--7--7--7--7------------------------------------------|

There will be terror at the sight of this!
There will be terror at the sight of this!
She only knows how to stay awake in here.


SOLO

(Coming soon)


CHORUS 1 (x1)


CHORUS 3/OUTRO

Guitar 1 

x2 (Heavy Distortion)
D#|-------------------------|--------------------------|
A#|-------------------------|--------------------------|
F#|--5--5--5--5----5--5--5--|--5--5--5--5----5/--7--7--|
c#|--3--3--3--3----3--3--3--|--3--3--3--3----3/--5--5--|
G#|--3--3--3--3----3--3--3--|--3--3--3--3----3/--5--5--|
C#|--3--3--3--3----3--3--3--|--3--3--3--3----3/--5--5--|
                                                         
D#|-------------------------|----------------------------|
A#|-------------------------|----------------------------|
F#|--9--9--9--9----9--9--9--|--9--9--9--9--9-------------|
c#|--7--7--7--7----7--7--7--|--7--7--7--7--7-------------|
G#|--7--7--7--7----7--7--7--|--7--7--7--7--7-------------|
C#|--7--7--7--7----7--7--7--|--7--7--7--7--7-------------|

x2 (Heavy Distortion)
D#|------------------------------------|
A#|------------------------------------|
F#|--5-x-5-x-5-x-5-x-5-x-5-x-5-x-7--7--|
c#|--3-x-3-x-3-x-3-x-3-x-3-x-3-x-5--5--|
G#|--3-x-3-x-3-x-3-x-3-x-3-x-3-x-5--5--|
C#|--3-x-3-x-3-x-3-x-3-x-3-x-3-x-5--5--|
PM     .   .   .   .   .   .   .   

D#|-----------------------------------|
A#|-----------------------------------|
F#|--9-x-9-x-9-x-9-x-9-x-9-x-9-x-7-x--|
c#|--7-x-7-x-7-x-7-x-7-x-7-x-7-x-5-x--|
G#|--7-x-7-x-7-x-7-x-7-x-7-x-7-x-5-x--|
C#|--7-x-7-x-7-x-7-x-7-x-7-x-7-x-5-x--|
PM     .   .   .   .   .   .   .   .

x2 (Heavy Distortion)
D#|--------------------------------------|
A#|--------------------------------------|
F#|--5-x-5-x-5-x-5--5--5-x-5-x-5-x-7--7--|
c#|--3-x-3-x-3-x-3--3--3-x-3-x-3-x-5--5--|
G#|--3-x-3-x-3-x-3--3--3-x-3-x-3-x-5--5--|
C#|--3-x-3-x-3-x-3--3--3-x-3-x-3-x-5--5--|
PM     .   .   .         .   .   .   

D#|-----------------------------------------|
A#|-----------------------------------------|
F#|--9-x-9-x-9-x-9--9--12-x-12-x-12-x-12-x--|
c#|--7-x-7-x-7-x-7--7--10-x-10-x-10-x-10-x--|
G#|--7-x-7-x-7-x-7--7--10-x-10-x-10-x-10-x--|
C#|--7-x-7-x-7-x-7--7--10-x-10-x-10-x-10-x--|
PM     .   .   .          .    .    .    .

D#|-----------------------------------------||
A#|-----------------------------------------||
F#|--5~-------------------------------------||
c#|--3~-------------------------------------||
G#|--3~-------------------------------------||
C#|--3~-------------------------------------||

Guitar 2

x1 (Heavy Distortion)
D#|------------------10-------------|
A#|--13------12--------------12h13--|
F#|------10------10------10---------|
c#|---------------------------------|
G#|---------------------------------|
C#|---------------------------------|

D#|------------------12-------------|
A#|--15------13--------------13h15--|
F#|------12------12------12---------|
c#|---------------------------------|
G#|---------------------------------|
C#|---------------------------------|

D#|--15--17--15--0--12--13--12--0--10--12--10--0--8--10--8--|
A#|---------------------------------------------------------|
F#|---------------------------------------------------------|
c#|---------------------------------------------------------|
G#|---------------------------------------------------------|
C#|---------------------------------------------------------|

D#|------------------10-------------|
A#|--13------12--------------12h13--|
F#|------10------10------10---------|
c#|---------------------------------|
G#|---------------------------------|
C#|---------------------------------|

D#|------------------12-------------|
A#|--15------13--------------13h15--|
F#|------12------12------12---------|
c#|---------------------------------|
G#|---------------------------------|
C#|---------------------------------|

D#|--15--13--12----------------------------------------------|
A#|--------------15--13--12----------------------10------12--|
F#|--------------------------12--10----------12------12------|
c#|----------------------------------12--10------------------|
G#|----------------------------------------------------------|
C#|----------------------------------------------------------|

x2 (Heavy Distortion)
D#|------------------10-------------|
A#|--13------12--------------12h13--|
F#|------10------10------10---------|
c#|---------------------------------|
G#|---------------------------------|
C#|---------------------------------|

D#|------------------12-------------|
A#|--15------13--------------13h15--|
F#|------12------12------12---------|
c#|---------------------------------|
G#|---------------------------------|
C#|---------------------------------|

D#|--15--17--15--12--13--0--12--0--10--12--10--0--8--10--8--|
A#|---------------------------------------------------------|
F#|---------------------------------------------------------|
c#|---------------------------------------------------------|
G#|---------------------------------------------------------|
C#|---------------------------------------------------------|

D#|--7--8--7--0--5--7--5--0--3--5--3--0--1~----||
A#|--------------------------------------------||
F#|--------------------------------------------||
c#|--------------------------------------------||
G#|--------------------------------------------||
C#|--------------------------------------------||

Let it go, your hands are right in front of me,
Let it go, your hands are right in front of me.

This is what I get!
This is what I get!
This is what I get!
This is what I get!


| /  slide up
| \  slide down
| h  hammer-on
| p  pull-off
| ~  let ring
| v  vibrato
| +  harmonic
| x  Mute note
| PM Palm-Mute note
============================================================================
Related for The New Year tab