Song name
# A B C D E F G H I J K L M N O P Q R S T U V W X Y Z

The Getaway Plan - A Toast To The Burning Estate tab

----------------------------------------------------------------------------
        A TOAST TO THE BURNING ESTATE - The Getaway Plan
----------------------------------------------------------------------------

Album - Hold Conversation (Boomtown, 2006)
Track - 1

Tabbed by: El Doof
Email: lets_set_the_stage_on_fire@hotmail.com


This is the first song I ever heard from this amazing Australian band.
It never gets old.
Enjoy =]


Tuning: Drop C#

Guitar 1 - Benny Chong
Guitar 2 - Clint Splattering
Guitar 3 - Benny Chong Acoustic
Guitar 4 - Clint Splattering Acoustic
Guitar 5 - Piano


INTRO 1

Guitar 5
x4 (Clean)
D#||--------------------------------------------------|
A#||--------------------------------------------------|
F#||--14----------17----------14----------17----------|
c#||--0---14--16------14--16------14--16------14--16--|
G#||--0~----------------------------------------------|
C#||--0~----------------------------------------------|

x1 (Clean)
D#|--------------------------------------------------|
A#|--------------------------------------------------|
F#|--14~---------------------------------------------|
c#|--0~----------------------------------------------|
G#|--0~----------------------------------------------|
C#|--0~----------------------------------------------|


INTRO 2

Guitar 1

x8 (Heavy Distortion)
D#||--------------------------|
A#||--6--6--6--6--6--6--6--6--|
F#||--7--7--7--7--7--7--7--7--|
c#||--------------------------|
G#||--------------------------|
C#||--------------------------|

x4 (Heavy Distortion)
D#|--------------------------|
A#|--6--6--6--6--6--6--6--6--|
F#|--7--7--7--7--7--7--7--7--|
c#|--0--0--0--0--0--0--0--0--|
G#|--0--0--0--0--0--0--0--0--|
C#|--0--0--0--0--0--0--0--0--|

Guitar 2

x3 (Heavy Distortion)
D#||--------------------------|
A#||--6~----------------------|
F#||--7~----------------------|
c#||--0~----------------------|
G#||--0~----------------------|
C#||--0~----------------------|

x1 (Heavy Distortion)
D#|--------------------------|
A#|--6~----------------------|
F#|--7~----------------------|
c#|--0~----------------------|
G#|--0~-----------PICKSLIDE--|
C#|--0~----------------------|

x6 (Heavy Distortion)
D#|--------------------------|--------------------------|
A#|--6--6--6--8--5--5--6--6--|--6--8--5--5--6--5--6--5--|
F#|--7--7--7--7--7--7--7--7--|--7--7--7--7--7--7--7--7--|
c#|--------------------------|--------------------------|
G#|--------------------------|--------------------------|
C#|--------------------------|--------------------------|


VERSE 1

Guitar 1

x1 (Heavy Distortion)
D#|--------------------------|-------------------------|
A#|--6--6--6--6--6--8--5--5--|--6--6--6--6-------------|
F#|--7--7--7--7--7--7--7--7--|--7--7--7--7-------------|
c#|--------------------------|--------------8----10----|
G#|--------------------------|--------------8----10----|
C#|--------------------------|--------------8----10----|

D#|--------------------------|------------------------|
A#|--6--6--6--6--6--8--5--5--|--6--6--6--6------------|
F#|--7--7--7--7--7--7--7--7--|--7--7--7--7--5----7----|
c#|--------------------------|--------------5----7----|
G#|--------------------------|--------------3----5----|
C#|--------------------------|------------------------|

D#|--------------------------|------------------------|
A#|--6--6--6--6--6--8--5--5--|--6--6--6--6------------|
F#|--7--7--7--7--7--7--7--7--|--7--7--7--7--5----7----|
c#|--------------------------|--------------5----7----|
G#|--------------------------|--------------3----5----|
C#|--------------------------|------------------------|

D#|--------------------------|--------------------------------|
A#|--6--6--6--6--6--8--5--5--|--6--6--6--6--------------------|
F#|--7--7--7--7--7--7--7--7--|--7--7--7--7--5--5--5--5--7--7--|
c#|--------------------------|--------------x--x--x--x--x--x--|
G#|--------------------------|--------------3--3--3--3--5--5--|
C#|--------------------------|--------------------------------|

D#|--------------------------|-------------------------|
A#|--6--6--6--6--6--8--5--5--|--6--6--6--6-------------|
F#|--7--7--7--7--7--7--7--7--|--7--7--7--7-------------|
c#|--------------------------|--------------8----10----|
G#|--------------------------|--------------8----10----|
C#|--------------------------|--------------8----10----|

D#|--------------------------|------------------------|
A#|--6--6--6--6--6--8--5--5--|--6--6--6--6------------|
F#|--7--7--7--7--7--7--7--7--|--7--7--7--7--5----7----|
c#|--------------------------|--------------5----7----|
G#|--------------------------|--------------3----5----|
C#|--------------------------|------------------------|

D#|--------------------------|------------------------|
A#|--6--6--6--6--6--8--5--5--|--6--6--6--6------------|
F#|--7--7--7--7--7--7--7--7--|--7--7--7--7--5----7----|
c#|--------------------------|--------------5----7----|
G#|--------------------------|--------------3----5----|
C#|--------------------------|------------------------|

D#|--------------------------|------------------------|
A#|--6--6--6--6--6--8--5--5--|--6--6--6--6------------|
F#|--7--7--7--7--7--7--7--7--|--7--7--7--7--9--9--9/--|
c#|--------------------------|--------------x--x--x---|
G#|--------------------------|--------------7--7--7/--|
C#|--------------------------|------------------------|

Guitar 2

x1 (Heavy Distortion)
D#|-------------------------|-------------------------|
A#|-------------------------|-------------------------|
F#|-------------------------|-------------------------|
c#|--0----0--0--0--0--0--0--|--0--0--0--0--8----10----|
G#|--0----0--0--0--0--0--0--|--0--0--0--0--8----10----|
C#|--0----0--0--0--0--0--0--|--0--0--0--0--8----10----|

D#|-------------------------|--------------------------|
A#|-------------------------|--------------------------|
F#|-------------------------|--------------------------|
c#|--8----8--8--8--8--8--8--|--8--8--8--8--10----12----|
G#|--8----8--8--8--8--8--8--|--8--8--8--8--10----12----|
C#|--8----8--8--8--8--8--8--|--8--8--8--8--10----12----|

D#|-------------------------------|------------------------------|
A#|-------------------------------|------------------------------|
F#|-------------------------------|------------------------------|
c#|--10---10--10--10--10--10--10--|--10--10--10--10--10----12----|
G#|--10---10--10--10--10--10--10--|--10--10--10--10--10----12----|
C#|--10---10--10--10--10--10--10--|--10--10--10--10--10----12----|

D#|-------------------------|--------------------------|
A#|-------------------------|--------------------------|
F#|-------------------------|--------------------------|
c#|--5----5--5--5--5--5--5--|--3--3--3--3--3--3--3--3--|
G#|--5----5--5--5--5--5--5--|--3--3--3--3--3--3--3--3--|
C#|--5----5--5--5--5--5--5--|--3--3--3--3--3--3--3--3--|

D#|-------------------------|-------------------------|
A#|-------------------------|-------------------------|
F#|-------------------------|-------------------------|
c#|--0----0--0--0--0--0--0--|--0--0--0--0--8----10----|
G#|--0----0--0--0--0--0--0--|--0--0--0--0--8----10----|
C#|--0----0--0--0--0--0--0--|--0--0--0--0--8----10----|

D#|-------------------------|--------------------------|
A#|-------------------------|--------------------------|
F#|-------------------------|--------------------------|
c#|--8----8--8--8--8--8--8--|--8--8--8--8--10----12----|
G#|--8----8--8--8--8--8--8--|--8--8--8--8--10----12----|
C#|--8----8--8--8--8--8--8--|--8--8--8--8--10----12----|

D#|-------------------------------|------------------------------|
A#|-------------------------------|------------------------------|
F#|-------------------------------|------------------------------|
c#|--10---10--10--10--10--10--10--|--10--10--10--10--10----12----|
G#|--10---10--10--10--10--10--10--|--10--10--10--10--10----12----|
C#|--10---10--10--10--10--10--10--|--10--10--10--10--10----12----|

D#|-------------------------|---------------------------|
A#|-------------------------|---------------------------|
B#|-------------------------|---------------------------|
c#|--5----5--5--5--5--5--5--|--3--3--3--3--10--10--10\--|
G#|--5----5--5--5--5--5--5--|--3--3--3--3--10--10--10\--|
C#|--5----5--5--5--5--5--5--|--3--3--3--3--10--10--10\--|

They'll take you by the hand,
And bring you to your knees,
This infected scene.
Crashing kerosene waves into a sea of fire,
Detrimental waves.


CHORUS 1

Guitar 1

x3 (Heavy Distortion)
D#|-------------------------------|--------------------------------|
A#|-------------------------------|--------------------------------|
F#|--10---10--10--10--10--10--10--|--10----10--10--10--10--10--12--|
c#|--x----x---x---x---x---x---x---|--x-----x---x---x---x---x---x---|
G#|--8----8---8---8---8---8---8---|--8-----8---8---8---8---8---10--|
C#|-------------------------------|--------------------------------|

D#|-------------------------|---------------------------|
A#|-------------------------|---------------------------|
F#|--9----9--9--9--9--9--9--|--9----9--9--9--12--10--9--|
c#|--x----x--x--x--x--x--x--|--x----x--x--x--x---x---x--|
G#|--7----7--7--7--7--7--7--|--7----7--7--7--10--8---7--|
C#|-------------------------|---------------------------|

x1 (Heavy Distortion)
D#|-------------------------------|--------------------------------|
A#|-------------------------------|--------------------------------|
F#|--10---10--10--10--10--10--10--|--10----10--10--10--10--10--12--|
c#|--x----x---x---x---x---x---x---|--x-----x---x---x---x---x---x---|
G#|--8----8---8---8---8---8---8---|--8-----8---8---8---8---8---10--|
C#|-------------------------------|--------------------------------|

D#|-------------------------|----------------------------|
A#|-------------------------|----------------------------|
F#|--9----9--9--9--9--9--9--|--9----9--9--9--12--10--9~--|
c#|--x----x--x--x--x--x--x--|--x----x--x--x--x---x---x---|
G#|--7----7--7--7--7--7--7--|--7----7--7--7--10--8---7~--|
C#|-------------------------|----------------------------|

Guitar 2

x3 (Heavy Distortion)
D#|---------------------------|----------------------------|
A#|---------------------------|----------------------------|
F#|---------------------------|----------------------------|
c#|--12\----0--0--0--0--0--0--|--8----8--8--8--8--8--8--8--|
G#|--12\----0--0--0--0--0--0--|--8----8--8--8--8--8--8--8--|
C#|--12\----0--0--0--0--0--0--|--8----8--8--8--8--8--8--8--|

D#|-------------------------|---------------------------|
A#|-------------------------|---------------------------|
F#|-------------------------|---------------------------|
c#|--5----5--5--5--5--5--5--|--3--3--3----10--10--10----|
G#|--5----5--5--5--5--5--5--|--3--3--3----10--10--10----|
C#|--5----5--5--5--5--5--5--|--3--3--3----10--10--10----|

x1 (Heavy Distortion)
D#|---------------------------|----------------------------|
A#|---------------------------|----------------------------|
F#|---------------------------|----------------------------|
c#|--12\----0--0--0--0--0--0--|--8----8--8--8--8--8--8--8--|
G#|--12\----0--0--0--0--0--0--|--8----8--8--8--8--8--8--8--|
C#|--12\----0--0--0--0--0--0--|--8----8--8--8--8--8--8--8--|

D#|-------------------------|---------------------|
A#|-------------------------|---------------------|
F#|-------------------------|-----------9--7--5~--|
c#|--5----5--5--5--5--5--5--|--3--3--3--x--x--x---|
G#|--5----5--5--5--5--5--5--|--3--3--3--7--5--3~--|
C#|--5----5--5--5--5--5--5--|--3--3--3------------|

You won't be getting out of here to soon,
Surrender all your assets, it's your turn.
Where are your friends now?
Threaten yourself, to try to please the crowd,
Because they want it more than you.


VERSE 2

Guitar 1

x1 (Heavy Distortion)
D#|--------------------------|-------------------------|
A#|--6--6--6--6--6--8--5--5--|--6--6--6--6-------------|
F#|--7--7--7--7--7--7--7--7--|--7--7--7--7-------------|
c#|--------------------------|--------------8----10----|
G#|--------------------------|--------------8----10----|
C#|--------------------------|--------------8----10----|

D#|--------------------------|------------------------|
A#|--6--6--6--6--6--8--5--5--|--6--6--6--6------------|
F#|--7--7--7--7--7--7--7--7--|--7--7--7--7--5----7----|
c#|--------------------------|--------------5----7----|
G#|--------------------------|--------------3----5----|
C#|--------------------------|------------------------|

D#|--------------------------|------------------------|
A#|--6--6--6--6--6--8--5--5--|--6--6--6--6------------|
F#|--7--7--7--7--7--7--7--7--|--7--7--7--7--5----7----|
c#|--------------------------|--------------5----7----|
G#|--------------------------|--------------3----5----|
C#|--------------------------|------------------------|

D#|--------------------------|--------------------------------|
A#|--6--6--6--6--6--8--5--5--|--6--6--6--6--------------------|
F#|--7--7--7--7--7--7--7--7--|--7--7--7--7--5--5--5--5--7--7--|
c#|--------------------------|--------------x--x--x--x--x--x--|
G#|--------------------------|--------------3--3--3--3--5--5--|
C#|--------------------------|--------------------------------|

D#|--------------------------|-------------------------|
A#|--------------------------|-------------------------|
F#|--------------------------|-------------------------|
c#|--BREAK-------------------|--------------8----10----|
G#|--------------------------|--------------8----10----|
C#|--------------------------|--------------8----10----|

D#|--------------------------|------------------------|
A#|--6--6--6--6--6--8--5--5--|--6--6--6--6------------|
F#|--7--7--7--7--7--7--7--7--|--7--7--7--7--5----7----|
c#|--------------------------|--------------5----7----|
G#|--------------------------|--------------3----5----|
C#|--------------------------|------------------------|

D#|--------------------------|------------------------|
A#|--6--6--6--6--6--8--5--5--|--6--6--6--6------------|
F#|--7--7--7--7--7--7--7--7--|--7--7--7--7--5----7----|
c#|--------------------------|--------------5----7----|
G#|--------------------------|--------------3----5----|
C#|--------------------------|------------------------|

D#|--------------------------|------------------------|
A#|--6--6--6--6--6--8--5--5--|--6--6--6--6------------|
F#|--7--7--7--7--7--7--7--7--|--7--7--7--7--9--9--9/--|
c#|--------------------------|--------------x--x--x---|
G#|--------------------------|--------------7--7--7/--|
C#|--------------------------|------------------------|

Guitar 2

x1 (Heavy Distortion)
D#|-------------------------|-------------------------|
A#|-------------------------|-------------------------|
F#|-------------------------|-------------------------|
c#|--0----0--0--0--0--0--0--|--0--0--0--0--8----10----|
G#|--0----0--0--0--0--0--0--|--0--0--0--0--8----10----|
C#|--0----0--0--0--0--0--0--|--0--0--0--0--8----10----|

D#|-------------------------|--------------------------|
A#|-------------------------|--------------------------|
F#|-------------------------|--------------------------|
c#|--8----8--8--8--8--8--8--|--8--8--8--8--10----12----|
G#|--8----8--8--8--8--8--8--|--8--8--8--8--10----12----|
C#|--8----8--8--8--8--8--8--|--8--8--8--8--10----12----|

D#|-------------------------------|------------------------------|
A#|-------------------------------|------------------------------|
F#|-------------------------------|------------------------------|
c#|--10---10--10--10--10--10--10--|--10--10--10--10--10----12----|
G#|--10---10--10--10--10--10--10--|--10--10--10--10--10----12----|
C#|--10---10--10--10--10--10--10--|--10--10--10--10--10----12----|

D#|-------------------------|--------------------------|
A#|-------------------------|--------------------------|
F#|-------------------------|--------------------------|
c#|--5----5--5--5--5--5--5--|--3--3--3--3--3--3--3--3--|
G#|--5----5--5--5--5--5--5--|--3--3--3--3--3--3--3--3--|
C#|--5----5--5--5--5--5--5--|--3--3--3--3--3--3--3--3--|

D#|-------------------------|-------------------------|
A#|-------------------------|-------------------------|
F#|-------------------------|-------------------------|
c#|--BREAK------------------|--------------8----10----|
G#|-------------------------|--------------8----10----|
C#|-------------------------|--------------8----10----|

D#|-------------------------|--------------------------|
A#|-------------------------|--------------------------|
F#|-------------------------|--------------------------|
c#|--8----8--8--8--8--8--8--|--8--8--8--8--10----12----|
G#|--8----8--8--8--8--8--8--|--8--8--8--8--10----12----|
C#|--8----8--8--8--8--8--8--|--8--8--8--8--10----12----|

D#|-------------------------------|------------------------------|
A#|-------------------------------|------------------------------|
F#|-------------------------------|------------------------------|
c#|--10---10--10--10--10--10--10--|--10--10--10--10--10----12----|
G#|--10---10--10--10--10--10--10--|--10--10--10--10--10----12----|
C#|--10---10--10--10--10--10--10--|--10--10--10--10--10----12----|

D#|-------------------------|---------------------------|
A#|-------------------------|---------------------------|
F#|-------------------------|---------------------------|
c#|--5----5--5--5--5--5--5--|--3--3--3--3--10--10--10\--|
G#|--5----5--5--5--5--5--5--|--3--3--3--3--10--10--10\--|
C#|--5----5--5--5--5--5--5--|--3--3--3--3--10--10--10\--|

Stuck behind a plague,
Descending mass,
Potential death.
When will we rise?
Because you're never coming back,
No, not again.


CHORUS 2

Guitar 1

x3 (Heavy Distortion)
D#|-------------------------------|--------------------------------|
A#|-------------------------------|--------------------------------|
F#|--10---10--10--10--10--10--10--|--10----10--10--10--10--10--12--|
c#|--x----x---x---x---x---x---x---|--x-----x---x---x---x---x---x---|
G#|--8----8---8---8---8---8---8---|--8-----8---8---8---8---8---10--|
C#|-------------------------------|--------------------------------|

D#|-------------------------|---------------------------|
A#|-------------------------|---------------------------|
F#|--9----9--9--9--9--9--9--|--9----9--9--9--12--10--9--|
c#|--x----x--x--x--x--x--x--|--x----x--x--x--x---x---x--|
G#|--7----7--7--7--7--7--7--|--7----7--7--7--10--8---7--|
C#|-------------------------|---------------------------|

Guitar 2
x4 (Heavy Distortion)
D#|---------------------------|----------------------------|
A#|---------------------------|----------------------------|
F#|---------------------------|----------------------------|
c#|--12\----0--0--0--0--0--0--|--8----8--8--8--8--8--8--8--|
G#|--12\----0--0--0--0--0--0--|--8----8--8--8--8--8--8--8--|
C#|--12\----0--0--0--0--0--0--|--8----8--8--8--8--8--8--8--|

D#|-------------------------|---------------------------|
A#|-------------------------|---------------------------|
F#|-------------------------|---------------------------|
c#|--5----5--5--5--5--5--5--|--3--3--3----10--10--10----|
G#|--5----5--5--5--5--5--5--|--3--3--3----10--10--10----|
C#|--5----5--5--5--5--5--5--|--3--3--3----10--10--10----|


BRIDGE PART 1

x1 (Heavy Distortion)
D#|------------|-----------------------------------------|
A#|------------|-----------------------------------------|
F#|--7----7----|--7--------------------------------------|
c#|--x----x----|--x----7p0h5p0h3p0h3p0h5p0h7p0h8p0h10p0--|
G#|--5----5----|--5--------------------------------------|
C#|------------|-----------------------------------------|

x7 (Heavy Distortion)
D#|---------------------------------------|
A#|---------------------------------------|
F#|---------------------------------------|
c#|--0--7p0h5p0h3p0h3p0h5p0h7p0h8p0h10p0--|
G#|---------------------------------------|
C#|---------------------------------------|

Guitar 2

x1 (Heavy Distortion)
D#|------------|-----------------------------------------|
A#|------------|-----------------------------------------|
F#|------------|-----------------------------------------|
c#|--0----0----|--0~-------------------------------------|
G#|--0----0----|--0~-------------------------------------|
C#|--0----0----|--0~-------------------------------------|

x3 (Heavy Distortion)
D#|--------------------------------------|
A#|--------------------------------------|
F#|--------------------------------------|
c#|--(0)~--------------------------------|
G#|--(0)~--------------------------------|
C#|--(0)~--------------------------------|

x4 (Heavy Distortion)
D#|--------5--5--------------|----------------------------|
A#|--6--6--x--x--6--6--5--5--|--5--5--5--5--5--5h6--6--6--|
F#|--7--7--7--7--7--7--7--7--|--7--7--7--7--7--7----7--7--|
c#|--------------------------|----------------------------|
G#|--------------------------|----------------------------|
C#|--------------------------|----------------------------|

Please, leave me breathless through this, through...
Please, leave me breathless through this, through...
(Tear this place apart, tear this place apart!)


BRIDGE PART 2

Guitar 1

x1 (Heavy Distortion)
D#|--------------------------|--------------------------|
A#|--------------------------|--------------------------|
F#|--9--9--9--9--9--9--9--9--|--9--9--9--9--9--9--9--9--|
c#|--x--x--x--x--x--x--x--x--|--x--x--x--x--x--x--x--x--|
G#|--7--7--7--7--7--7--7--7--|--7--7--7--7--7--7--7--7--|
C#|--------------------------|--------------------------|

x4 (Heavy Distortion)
D#|----------------------|
A#|----------------------|
F#|----------------------|
c#|--10--10----10--10----|
G#|--10--10----10--10----|
C#|--10--10----10--10----|

x1 (Heavy Distortion)
D#|--------------------------|--------------------------|
A#|--6--6--6--6--6--6--6--6--|--6--6--6--6--6--6--6--6--|
F#|--7--7--7--7--7--7--7--7--|--7--7--7--7--7--7--7--7--|
c#|--------------------------|--------------------------|
G#|--------------------------|--------------------------|
C#|--------------------------|--------------------------|

D#|--------------------------|--------------------------|
A#|--5--5--5--5--5--5--5--5--|--5--5--5--5--5--5--5--5--|
F#|--7--7--7--7--7--7--7--7--|--7--7--7--7--7--7--7--7--|
c#|--------------------------|--------------------------|
G#|--------------------------|--------------------------|
C#|--------------------------|--------------------------|

D#|--------------------------|--------------------------|
A#|--6--6--6--6--6--6--6--6--|--6--6--6--6--6--6--6--6--|
F#|--7--7--7--7--7--7--7--7--|--7--7--7--7--7--7--7--7--|
c#|--------------------------|--------------------------|
G#|--------------------------|--------------------------|
C#|--------------------------|--------------------------|

D#|--------------------------|--------------------------|
A#|--8--8--8--8--8--8--8--8--|--8--8--8--8--8--8--8--8--|
F#|--7--7--7--7--7--7--7--7--|--7--7--7--7--7--7--7--7--|
g#|--------------------------|--------------------------|
C#|--------------------------|--------------------------|
G#|--------------------------|--------------------------|

Guitar 2

x2 (Heavy Distortion)
D#|----------------------------------|----------------------------------|
A#|----------------------------------|----------------------------------|
F#|----------------------------------|----------------------------------|
c#|--10--10--10--10--10--10--10--10--|--10--10--10--10--10--10--10--10--|
G#|--10--10--10--10--10--10--10--10--|--10--10--10--10--10--10--10--10--|
C#|--10--10--10--10--10--10--10--10--|--10--10--10--10--10--10--10--10--|

x1 (Heavy Distortion)
D#|----------------------|----------------------|
A#|----------------------|----------------------|
F#|----------------------|----------------------|
c#|--10--10----10--10----|--10--10----10--10----|
G#|--10--10----10--10----|--10--10----10--10----|
C#|--10--10----10--10----|--10--10----10--10----|

D#|----------------------|----------------------------|
A#|----------------------|----------------------------|
F#|----------------------|----------------------------|
C#|--10--10----10--10----|--10--10----10--10--10--10--|
G#|--10--10----10--10----|--10--10----10--10--10--10--|
C#|--10--10----10--10----|--10--10----10--10--10--10--|

D#|----------------------|----------------------|
A#|----------------------|----------------------|
F#|----------------------|----------------------|
c#|--10--10----10--10----|--10--10----10--10----|
G#|--10--10----10--10----|--10--10----10--10----|
C#|--10--10----10--10----|--10--10----10--10----|

D#|----------------------|----------------------|
A#|----------------------|----------------------|
F#|----------------------|----------------------|
c#|--10--10----10--10----|--10--10----10--10----|
G#|--10--10----10--10----|--10--10----10--10----|
C#|--10--10----10--10----|--10--10----10--10----|


CHORUS 3

*There are some guitar overdubs here, but they're barely perceptible and you're not 
to be playing them if you've got two guitars as the band does.

Guitar 3

x4 (Acoustic)
D#|-------------------------------|--------------------------------|
A#|-------------------------------|--------------------------------|
F#|--10---10--10--10--10--10--10--|--10----10--10--10--10--10--12--|
C#|--x----x---x---x---x---x---x---|--x-----x---x---x---x---x---x---|
G#|--8----8---8---8---8---8---8---|--8-----8---8---8---8---8---10--|
C#|-------------------------------|--------------------------------|

D#|-------------------------|---------------------------|
A#|-------------------------|---------------------------|
F#|--9----9--9--9--9--9--9--|--9----9--9--9--12--10--9--|
c#|--x----x--x--x--x--x--x--|--x----x--x--x--x---x---x--|
G#|--7----7--7--7--7--7--7--|--7----7--7--7--10--8---7--|
C#|-------------------------|---------------------------|

x1 (Heavy Distortion)
D#|------------|
A#|------------|
F#|--9~----9/--|
c#|--x-----x---|
G#|--7~----7/--|
C#|------------|

Guitar 4

x4 (Acoustic)
D#|--------------------------|----------------------------|
A#|--------------------------|----------------------------|
F#|--------------------------|----------------------------|
c#|--12----0--0--0--0--0--0--|--8----8--8--8--8--8--8--8--|
G#|--12----0--0--0--0--0--0--|--8----8--8--8--8--8--8--8--|
C#|--12----0--0--0--0--0--0--|--8----8--8--8--8--8--8--8--|

D#|-------------------------|---------------------------|
A#|-------------------------|---------------------------|
F#|-------------------------|---------------------------|
c#|--5----5--5--5--5--5--5--|--3--3--3----10--10--10----|
G#|--5----5--5--5--5--5--5--|--3--3--3----10--10--10----|
C#|--5----5--5--5--5--5--5--|--3--3--3----10--10--10----|

x1 (Heavy Distortion)
D#|---------|
A#|---------|
F#|---------|
c#|--10~----|
G#|--10~----|
C#|--10~----|


CHORUS 4

Guitar 1

x3 (Heavy Distortion)
D#|-------------------------------|--------------------------------|
A#|-------------------------------|--------------------------------|
F#|--10---10--10--10--10--10--10--|--10----10--10--10--10--10--12--|
c#|--x----x---x---x---x---x---x---|--x-----x---x---x---x---x---x---|
G#|--8----8---8---8---8---8---8---|--8-----8---8---8---8---8---10--|
C#|-------------------------------|--------------------------------|

D#|-------------------------|---------------------------|
A#|-------------------------|---------------------------|
F#|--9----9--9--9--9--9--9--|--9----9--9--9--12--10--9--|
c#|--x----x--x--x--x--x--x--|--x----x--x--x--x---x---x--|
G#|--7----7--7--7--7--7--7--|--7----7--7--7--10--8---7--|
C#|-------------------------|---------------------------|

x1 (Heavy Distortion)
D#|-------------------------------|--------------------------------|
A#|-------------------------------|--------------------------------|
F#|--10---10--10--10--10--10--10--|--10----10--10--10--10--10--12--|
c#|--x----x---x---x---x---x---x---|--x-----x---x---x---x---x---x---|
G#|--8----8---8---8---8---8---8---|--8-----8---8---8---8---8---10--|
C#|-------------------------------|--------------------------------|

D#|-------------------------|----------------------------|
A#|-------------------------|----------------------------|
F#|--9----9--9--9--9--9--9--|--9----9--9--9--12--10--9~--|
c#|--x----x--x--x--x--x--x--|--x----x--x--x--x---x---x---|
G#|--7----7--7--7--7--7--7--|--7----7--7--7--10--8---7~--|
C#|-------------------------|----------------------------|

Guitar 2

x3 (Heavy Distortion)
D#|---------------------------|----------------------------|
A#|---------------------------|----------------------------|
F#|---------------------------|----------------------------|
c#|--12\----0--0--0--0--0--0--|--8----8--8--8--8--8--8--8--|
G#|--12\----0--0--0--0--0--0--|--8----8--8--8--8--8--8--8--|
C#|--12\----0--0--0--0--0--0--|--8----8--8--8--8--8--8--8--|

D#|-------------------------|---------------------------|
A#|-------------------------|---------------------------|
F#|-------------------------|---------------------------|
c#|--5----5--5--5--5--5--5--|--3--3--3----10--10--10----|
G#|--5----5--5--5--5--5--5--|--3--3--3----10--10--10----|
C#|--5----5--5--5--5--5--5--|--3--3--3----10--10--10----|

x1 (Heavy Distortion)
D#|---------------------------|----------------------------|
A#|---------------------------|----------------------------|
F#|---------------------------|----------------------------|
c#|--12\----0--0--0--0--0--0--|--8----8--8--8--8--8--8--8--|
G#|--12\----0--0--0--0--0--0--|--8----8--8--8--8--8--8--8--|
C#|--12\----0--0--0--0--0--0--|--8----8--8--8--8--8--8--8--|

D#|-------------------------|---------------------|
A#|-------------------------|---------------------|
F#|-------------------------|-----------9--7--5~--|
c#|--5----5--5--5--5--5--5--|--3--3--3--x--x--x---|
G#|--5----5--5--5--5--5--5--|--3--3--3--7--5--3~--|
C#|--5----5--5--5--5--5--5--|--3--3--3------------|


OUTRO

Guitar 1

x3 (Heavy Distortion)
D#|--------------------------|
A#|--6--6--6--6--6--6--6--6--|
F#|--7--7--7--7--7--7--7--7--|
c#|--------------------------|
G#|--------------------------|
C#|--------------------------|

x1 (Heavy Distortion)
D#|-------||
A#|-------||
F#|-------||
c#|--0----||
G#|--0----||
C#|--0----||

Guitar 2

x3 (Heavy Distortion)
D#|--13--------------13--------------|
A#|------17--15--13------17--15--13--|
F#|----------------------------------|
c#|----------------------------------|
G#|----------------------------------|
C#|----------------------------------|

x1 (Heavy Distortion)
D#|-------||
A#|-------||
F#|-------||
c#|--0----||
G#|--0----||
C#|--0----||


| /  slide up
| \  slide down
| h  hammer-on
| p  pull-off
| ~  let ring
| v  vibrato
| +  harmonic
| x  Mute note
============================================================================
Tap to rate this tab
 
# A B C D E F G H I J K L M N O P Q R S T U V W X Y Z