Song name
# A B C D E F G H I J K L M N O P Q R S T U V W X Y Z

The Getaway Plan - Rhapsody On A Windy Night tab

tunning
Cgcfad

Half of "Rhapsody on a windy night" - The getaway plan...
i could be bothered doing the rest, the first bits
sound awesome so...

INTRO...
guitar 1
*after the weird sounds and bells...

|-----------------|-----------------| <- play until   |-----------------|
|-10------8-------|-10------8-------| the end of      |-10--10--10--10--|
|----7-9-----10---|----7-9-----10---| intro, about 4  |-----------------|
|-----------------|-----------------| times, then at  |-----------------|
|-----------------|-----------------| the end...      |-----------------|
|-----------------|-----------------|                 |-----------------|

guitar 2

Guitar 3:
|-----------------|-----------------|-----------------|-----------------|
|-----------------|-----------------|-----------------|-----------------|
|-----------------|-----------------|-----------------|-----------------|
|-0-0-0-0-2-2-3-3-|-8-8-8-8-8-8-8-8-|-5-5-5-5-5-5-5-5-|-8-8-8-8-8-8-8-xx|
|-0-0-0-0-0-0-0-0-|-8-8-8-8-7-7-8-8-|-5-5-5-5-7-7-8-8-|-8-8-8-8-8-8-8-xx|
|-0-0-0-0-0-0-0-0-|-8-8-8-8-8-8-8-8-|-5-5-5-5-5-5-5-5-|-8-8-8-8-8-8-8-xx|


VERSE
guitar 1- (clean) 
set the lines on fire, its what you do to me constantly...
      
          random harmonics
|-5~------8~------|---5-----8-----5-|-8~--------------| 
|-6~--------------|-----6-----6-----|-6~----8-8p10----|    2x
|-7~--------------|-7-----7-----7---|-7~-----------9~-|
|-----------------|-----------------|-----------------|
|-----------------|-----------------|-----------------|
|-----------------|-----------------|-----------------|


CHORUS

guitar 1- distortion
it might sound hell different but with guitar 2 itll sound ok...
so burn all your bridges
                and learn... 
|-----------------|-----------------|-----------------|-----------------|
|-----------------|-----------------|-----------------|-----------------|
|-10101010101010--|-9-9-9-9-9-9-9---|-7-7-7-7-7-7-7---|-10101010101010--|
|-10101010101010--|-10101010101010--|-7-7-7-7-7-7-7---|-10101010101010--|
|-8-8-8-8-8-8-8---|-7-7-7-7-7-7-7---|-5-5-5-5-5-5-5---|-8-8-8-8-8-8-8---|
|-----------------|-----------------|-----------------|-----------------|


guitar 2

|-----------------|-----------------|-----------------|-----------------|
|-----------------|-----------------|-----------------|-----------------|
|-----------------|-----------------|-----------------|-----------------|
|-3-3-3-3-5-5-5-5-|-0-0-0-0-3-3-3-3-|-----------------|-----------------|
|-3-3-3-3-5-5-5-5-|-0-0-0-0-3-3-3-3-|-----------------|-----------------|
|-3-3-3-3-5-5-5-5-|-0-0-0-0-3-3-3-3-|-----------------|-----------------|


yea thats all i could do for now...hope its ok
latr

azz
Tap to rate this tab
# A B C D E F G H I J K L M N O P Q R S T U V W X Y Z