Song name
# A B C D E F G H I J K L M N O P Q R S T U V W X Y Z

The Getaway Plan - Strings tab

Song: Strings
Artist: The Getaway Plan
Tuning: Standard EADGBE
Tabbed by: the mcr freak

KEY:
~ let ring

I don't have both guitars fully done.
Work out strumming patterns.

------------
GUITAR 1
------------
[VERSES]
e---------2---2---6---6---4---4-|
B-4---6---4---6---7---6---7---6-|
G-4---4---4---4---8---8---6---6-|
D-4---4---4---4---8---8---6---6-|
A-2---2---2---2---6---6---4---4-|
E-4-----------------------------|

[CHORUSES]
e-2---4---6---9---|
B-4---6---7---6---|
G-4---6---8---8---|
D-4---6---8---8---|
A-2---4---6---6---|
E-----------------|

[(Lead up to bridge)]
e-2~---4~---6~---|
B-4~---6~---7~---|
G-4~---6~---8~---|
D-4~---6~---8~---|
A-2~---4~---6~---|
E----------------|

[BRIDGE]
e-----2---6---6---4---4-----|
B-----6---6---7---6---7---6-|
G-----4---4---8---8---6---6-|
D-6---4---4---8---8---6---6-|
A-6---2---2---6---6---4---4-|
E-4-------------------------|

[OUTRO]
The picking is based off the chords above.
e-2---1---2~---|
B-4---3---4~---|
G-4---3---4~---|
D-4---3---4~---|
A-2---1---2~---|
E--------------|
---------------|
GUITAR 2
------------
[VERSE 2]
e-------|
B-7-6---|
G--6-6--|
D-------|
A-------|
E-------|
Tap to rate this tab
# A B C D E F G H I J K L M N O P Q R S T U V W X Y Z