Song name
# A B C D E F G H I J K L M N O P Q R S T U V W X Y Z

The Getaway Plan - Oceans Between Us chords

Highlighted       Show chord diagrams
OCEANS BETWEEN US
The Getaway Plan
Album: Requiem (2011)

Transcribed by Jo Kathleen Marie

Twitter: @JoKathleenMarie
Email: jokathleenmarie@hotmail.com


VERSE: Fm Bbm C# Eb

There is a place that I remember, where we were sheltered from our sins.
We were the only ones allowed there, the safest place we've ever been.
There was a time where I could hold you, and we would watch the whole world spin.
We used to lay and talk for hours, and wouldn't let the daylight in.


CHORUS:

C#      G#                                   C#
  After this fades we falter and discover,
       G# Eb         G#
everything gold will stay.
             G#                           C#
We'll find our way back to one another,
    G# Eb
one of these days.


SOLO:

Chords: Fm Bbm C# Eb

e---------6/8-------------------------------------6/8-----11-8-----------8----|
B-------9----11-9-----------9-------------------9-----/11--------11-9h11------|
G-8h10-----------8h10--8h10--10-8---------8h10--------------------------------|
D----------------------------------10-8---------------------------------------|
A-----------------------------------------------------------------------------|
E-----------------------------------------------------------------------------|

e-8h9p8---------------------------|
B---------11---9-8----------------|
G-------------------8h10----------|
D---------------------------------|
A---------------------------------|
E---------------------------------|


There was a time when we were strangers, and such a love could not exist.
Now I look back and can't help wonder, about the love that we have missed.


CHORUS


BRIDGE: Bbm Fm x3 C# Eb

There's no point in looking backwards,
when there are oceans between us.
Just be still and your call will be answered,
and when I'm home, we can spread our wings again.


CHORUS


OUTRO:
Fm Bbm C# Fm x2
Tap to rate this tab
# A B C D E F G H I J K L M N O P Q R S T U V W X Y Z