Song name
# A B C D E F G H I J K L M N O P Q R S T U V W X Y Z

The Getaway Plan - Oceans Between Us tab

The chords up for this (for version 1) are pretty much 100% accurate! 
I thought I would just complete the music for this song with the solo since it's so groovy. 
The tab is relative to an un-capo'd guitar but you play the chords capo 1



e|------4-6/8---6--4-----------------------------4-6/8-6h8-8/11-8--6-4h6-6/8|
B|--4h6---------------4/6---4/6/9--6--3p0----4h6----------------------------|
G|----------------------------------------2---------------------------------|
D|--------------------------------------------------------------------------|
A|--------------------------------------------------------------------------|
E|--------------------------------------------------------------------------|


e|-8b9r8-6----4-3-----------------------------------------------------------|
B|----------------4/6-------------------------------------------------------|
G|--------------------------------------------------------------------------|
D|--------------------------------------------------------------------------|
A|--------------------------------------------------------------------------|
E|--------------------------------------------------------------------------|


-stoddard
Tap to rate this tab
# A B C D E F G H I J K L M N O P Q R S T U V W X Y Z