The Ghost Dinner Band - Silver Strings From Heaven tab

silver strings from heaven


the ghost dinner band


TRANSCRIBED BY RUDY GUZMAN


guzman_84@hotmail.com




                                               
e:---0-0-----0-0---0-0---------1-1--1-1-1-1-1---------3--3-3--3-------------3----------|
B:---1-1-----1-1---1-1---------1-1--1-1-1-1-1---------3--3-3--3-------------3----------|
G:---0-0-----0-0---0-0---------2-2--2-2-2-2-2---------0--0-0--0-------------0----------|
D:---2-2-0h2-2-2---2-2-2-0-----3-3--3-3-3-3-3---------0--0-0--0--------0----0----------|
A:-3-3-3-----3-3-3-3-3-----3---3-3--3-3-----3---------2--2-2--2--2-0h2------2------0-0-|
E:---------------------------1-1-1--1-1-----1--1-2-3--3--3-3--3----------3--3--3-3-----|

e:-------------------------------3-3-3-3-3-|
B:-------------------------------3-3-3-3-3-|
G:--------0-0-----0-----0-----0--0-0-0-0-0-|
D:--------2-2-0h2---0h2---0h2----0-0-0-0-0-|
A:-2-2-3--3-3-3-----3-----3------2-2-2-2-2-|
E:-------------------------------3-3-3-3-3-|

verse
e:---0-0-----0-0---0-0---------1-1--1-1-1-1-1---------3--3-3--3-------------3----------|
B:---1-1-----1-1---1-1---------1-1--1-1-1-1-1---------3--3-3--3-------------3----------|
G:---0-0-----0-0---0-0---------2-2--2-2-2-2-2---------0--0-0--0-------------0----------|
D:---2-2-0h2-2-2---2-2-2-0-----3-3--3-3-3-3-3---------0--0-0--0--------0----0----------|
A:-3-3-3-----3-3-3-3-3-----3---3-3--3-3-3-3-3---------2--2-2--2--2-0h2------2------0-0-|
E:---------------------------1-1-1--1-1-1-1-1--1-2-3--3--3-3--3----------3--3--3-3-----|

e:-------------------------------3-3-3-3-3-|
B:-------------------------------3-3-3-3-3-|
G:--------0-0-----0-----0-----0--0-0-0-0-0-|
D:--------2-2-0h2---0h2---0h2----0-0-0-0-0-|
A:-2-2-3--3-3-3-----3-----3------2-2-2-2-2-|
E:-------------------------------3-3-3-3-3-|

e:---0-0-----0-0---0-0---------1-1--1-1-1-1-1---------3--3-3--3-------------3--3-3-----|
B:---1-1-----1-1---1-1---------1-1--1-1-1-1-1---------3--3-3--3-------------3--3-3-----|
G:---0-0-----0-0---0-0---------2-2--2-2-2-2-2---------0--0-0--0-------------0--0-0-----|
D:---2-2-0h2-2-2---2-2-2-0-----3-3--3-3-3-3-3---------0--0-0--0--------0----0--0-0-----|
A:-3-3-3-----3-3-3-3-3-----3---3-3--3-3-3-3-3---------2--2-2--2--2-0h2------2--2-2-0-0-|
E:---------------------------1-1-1--1-1-1-1-1--1-2-3--3--3-3--3----------3--3--3-3-----|

e:-------------------------------3-3-3-3-3-|
B:-------------------------------3-3-3-3-3-|
G:--------0-0-----0-----0-----0--0-0-0-0-0-|
D:--------2-2-0h2---0h2---0h2----0-0-0-0-0-|
A:-2-2-3--3-3-3-----3-----3------2-2-2-2-2-|
E:-------------------------------3-3-3-3-3-|


  chrous
  distortion
e:---1-1---1-1---1-1---1-1---0-0---0-0---0-0-------|
B:---1-1---1-1---1-1---1-1---1-1---1-1---1-1-------|
G:---2-2---2-2---2-2---2-2---0-0---0-0---0-0-------|
D:---3-3---3-3---3-3---3-3---2-2-2-2-2---2-2-2-0---|
A:---3-3-3-3-3---3-3-3-3-3-3-3-3---3-3-3-3-3-----3-|
E:-1-1-1---1-1-1-1-1---1-1-------------------------|

e:---1-1---1-1---1-1---1-1---0-0---0-0---0-0-------|
B:---1-1---1-1---1-1---1-1---1-1---1-1---1-1-------|
G:---2-2---2-2---2-2---2-2---0-0---0-0---0-0-------|
D:---3-3---3-3---3-3---3-3---2-2-2-2-2---2-2-2-0---|
A:---3-3-3-3-3---3-3-3-3-3-3-3-3---3-3-3-3-3-----3-|
E:-1-1-1---1-1-1-1-1---1-1-------------------------|

e:---3-3---3-3---3-3---3-3------------------------3-3-3-3-3-|
B:---3-3---3-3---3-3---3-3------------------------3-3-3-3-3-|
G:---0-0---0-0---0-0---0-0-0-0-----0-----0-----0--0-0-0-0-0-|
D:---0-0---0-0---0-0---0-0-2-2-0h2---0h2---0h2----0-0-0-0-0-|
A:---2-2-2-2-2---2-2-2-2-2-3-3-3-----3-----3------2-2-2-2-2-|
E:-3-3-3---3-3-3-3-3---3-3------------------------3-3-3-3-3-|

verse
e:---0-0-----0-0---0-0---------1-1--1-1-1-1-1---------3--3-3--3-------------3----------|
B:---1-1-----1-1---1-1---------1-1--1-1-1-1-1---------3--3-3--3-------------3----------|
G:---0-0-----0-0---0-0---------2-2--2-2-2-2-2---------0--0-0--0-------------0----------|
D:---2-2-0h2-2-2---2-2-2-0-----3-3--3-3-3-3-3---------0--0-0--0--------0----0----------|
A:-3-3-3-----3-3-3-3-3-----3---3-3--3-3-3-3-3---------2--2-2--2--2-0h2------2------0-0-|
E:---------------------------1-1-1--1-1-1-1-1--1-2-3--3--3-3--3----------3--3--3-3-----|

e:-------------------------------3-3-3-3-3-|
B:-------------------------------3-3-3-3-3-|
G:--------0-0-----0-----0-----0--0-0-0-0-0-|
D:--------2-2-0h2---0h2---0h2----0-0-0-0-0-|
A:-2-2-3--3-3-3-----3-----3------2-2-2-2-2-|
E:-------------------------------3-3-3-3-3-|

e:---0-0-----0-0---0-0---------1-1--1-1-1-1-1---------3--3-3--3-------------3--3-3-----|
B:---1-1-----1-1---1-1---------1-1--1-1-1-1-1---------3--3-3--3-------------3--3-3-----|
G:---0-0-----0-0---0-0---------2-2--2-2-2-2-2---------0--0-0--0-------------0--0-0-----|
D:---2-2-0h2-2-2---2-2-2-0-----3-3--3-3-3-3-3---------0--0-0--0--------0----0--0-0-----|
A:-3-3-3-----3-3-3-3-3-----3---3-3--3-3-3-3-3---------2--2-2--2--2-0h2------2--2-2-0-0-|
E:---------------------------1-1-1--1-1-1-1-1--1-2-3--3--3-3--3----------3--3--3-3-----|

e:-------------------------------3-3-3-3-3-|
B:-------------------------------3-3-3-3-3-|
G:--------0-0-----0-----0-----0--0-0-0-0-0-|
D:--------2-2-0h2---0h2---0h2----0-0-0-0-0-|
A:-2-2-3--3-3-3-----3-----3------2-2-2-2-2-|
E:-------------------------------3-3-3-3-3-|


  chrous
  distortion
e:---1-1---1-1---1-1---1-1---0-0---0-0---0-0-------|
B:---1-1---1-1---1-1---1-1---1-1---1-1---1-1-------|
G:---2-2---2-2---2-2---2-2---0-0---0-0---0-0-------|
D:---3-3---3-3---3-3---3-3---2-2-2-2-2---2-2-2-0---|
A:---3-3-3-3-3---3-3-3-3-3-3-3-3---3-3-3-3-3-----3-|
E:-1-1-1---1-1-1-1-1---1-1-------------------------|

e:---1-1---1-1---1-1---1-1---0-0---0-0---0-0-------|
B:---1-1---1-1---1-1---1-1---1-1---1-1---1-1-------|
G:---2-2---2-2---2-2---2-2---0-0---0-0---0-0-------|
D:---3-3---3-3---3-3---3-3---2-2-2-2-2---2-2-2-0---|
A:---3-3-3-3-3---3-3-3-3-3-3-3-3---3-3-3-3-3-----3-|
E:-1-1-1---1-1-1-1-1---1-1-------------------------|

e:---3-3---3-3---3-3---3-3------------------------3-3-3-3-3-|
B:---3-3---3-3---3-3---3-3------------------------3-3-3-3-3-|
G:---0-0---0-0---0-0---0-0-0-0-----0-----0-----0--0-0-0-0-0-|
D:---0-0---0-0---0-0---0-0-2-2-0h2---0h2---0h2----0-0-0-0-0-|
A:---2-2-2-2-2---2-2-2-2-2-3-3-3-----3-----3------2-2-2-2-2-|
E:-3-3-3---3-3-3-3-3---3-3------------------------3-3-3-3-3-|

---ending
e:---0-0-----0-0---0-0---------1-1--1-1-1-1-1---------3-----3----------------|
B:---1-1-----1-1---1-1---------1-1--1-1-1-1-1---------3-----3----1---1-----1-|
G:---0-0-----0-0---0-0---------2-2--2-2-2-2-2---------0-----0----0---0-----0-|
D:---2-2-0h2-2-2---2-2-2-0-----3-3--3-3-3-3-3---------0-----0----2---2-0h2-2-|
A:-3-3-3-----3-3-3-3-3-----3---3-3--3-3-3-3-3---------2-----2----3---3-----3-|
E:---------------------------1-1-1--1-1-1-1-1--1-2-3--3-----3----------------|


websites:

http://www.myspace.com/ghostdinner                                myspace

http://www.facebook.com/pages/The-Ghost-Dinner-Band/261852034298  facebook


hillo son mex

16/08/10
Tap to rate this tab
 
# A B C D E F G H I J K L M N O P Q R S T U V W X Y Z