Song name
# A B C D E F G H I J K L M N O P Q R S T U V W X Y Z

The Ghost Inside - Faith Or Forgiveness tab

-------------------------------------------------------------------------------
			     Faith Or Forgiveness - The Ghost Inside
-------------------------------------------------------------------------------
Tabbed by:DudeI'mOnAlesse
Email:brad_feor@hotmail.com
Band Myspace: http://www.myspace.com/theghostinside 
Check em out, there a pretty new band but there pretty freakin metal
Tuning:Drop B
                Verse Riff
e|---------------------------------------------------------------------------|
B|---------------------------------------------------------------------------|
G|---------------------------------------------------------------------------|
D|-----------------0-00-1-0-0-00000-0-00-0-0-1-0-00-1-0-0-000----------------|X2
A|-7h8p7-----------0-00-1-0-0-00000-0-00-0-0-1-0-00-1-0-0-000-7h8p7----------|
E|0-----10-8-7-8-7-0-00-1-0-0-00000-0-00-0-0-1-0-00-1-0-0-000------10-8-7-8-7|
                     ..   .   .....   ..         ..     . ...
                   Chorus
e|---------------------------------------------------------------------------|
B|---------------------------------------------------------------------------|
G|----------------------14-11-9-910-14-11-9-97-------------------------------|X1
D|3-----------5----------x-x--x-xx---x-x--x-xx------------------------------|
A|3-----------5---------12-9--7-78--12-9--7-75-------------------------------|
E|3-----------5--------------------------------------------------------------|

e|---------------------------------------------------------------------------|
B|---------------------------------------------------------------------------|
G|10-12--14-11-9-910-14-11-9-97----------------------------------------------|X1
D|x--x---x--x--x-xx--x--x--x-xx---------------------------------------------|
A|8--10--12-9--7-78--12-9--7-75----------------------------------------------|
E|---------------------------------------------------------------------------| 
                Fill Thingy
e|---------------------------------------------------------------------------|
B|---------------------------------------------------------------------------|
G|---------------------------------------------------------------------------|
D|0-00-1-0-0-00000-0-0-0-0-1-0-00-1-0-0-000----------------------------------|
A|0-00-1-0-0-00000-0-0-0-0-1-0-00-1-0-0-000-7h8p9----------------------------|
E|0-00-1-0-0-00000-0-0-0-0-1-0-00-1-0-0-000------10-8-7-8-7------------------|
    ..   .   .....   .         ..   .   ...
      Repeat Verse, Then Chorus, Then Fill Thingy, This is The Melodic Part
e|---------------------------------------------------------------------------|
B|---------------------------------------------------------------------------|
G|---------------------------------------------------------------------------|
D|8-8-8-8~---8/12-12-12-12-10-10-10-10-12-10---------------------------------|
A|8-8-8-8~---8/12-12-12-12-10-10-10-10-12-10---------------------------------|
E|8-8-8-8~---8/12-12-12-12-10-10-10-10-12-10---------------------------------|
      ALMOST FORGOT THIS, "Lets GOOOO!" part in verse
e|---------------------------------------------------------------------------|
B|---------------------------------------------------------------------------|
G|---------------------------------------9-10-12--14-------------------------|X2
D|0-3-5-6-0-3-5-0-3-5-0-00-0-3-5-6-0-3-5-x-x--x---x-------------------------|
A|0-3-5-6-0-3-5-0-3-5-0-00-0-3-5-6-0-3-5-7-8--10--12-------------------------|
E|0-3-5-6-0-3-5-0-3-5-0-00-0-3-5-6-0-3-5-------------------------------------|
                        ..    Breakdown, repeat as many times as needed
e|---------------------------------------------------------------------------|
B|---------------------------------------------------------------------------|
G|---------------------------------------------------------------------------|
D|0000-00-----11-000-00------------------------------------------------------|
A|0000-00-----11-000-00---8----7---------------------------------------------|
E|0000-00-----11-000-00----10-8-8-7-8----------------------------------------|
  .... ..     .. ... ..



| /  slide up
| \  slide down
| h  hammer-on
| p  pull-off
| ~  let note ring

| +  harmonic
| .  Mute note
===============================================================================
Tap to rate this tab
 
# A B C D E F G H I J K L M N O P Q R S T U V W X Y Z