Guitaretab - guitar tabs
Song name
# A B C D E F G H I J K L M N O P Q R S T U V W X Y Z

The Ghost Inside - Chrono tab

Artist: The Ghost Inside
Song: Chrono
Album: Returners (2010)
Tuning: Drop A#/Drop Bb  - (A#, F, A#, D#, G, C)

/ - Slide
. - Palm Mute
~ - Let Ring


Try not to rely too much on the spacing of the tabulature to determine the timing.
 

|Intro
|
|Guitar 1
|--------------------------------------------------------------------------|
|-------8---55555-5-55555-5-55555-5------8--55555-5-55555-5-55555-5--------|
|-----9--9--55555-5-55555-5-55555-5----9--9-55555-5-55555-5-55555-5--------|
|---7-------33333-3-33333-3-33333-3-5/7-----33333-3-33333-3-33333-3--------|
|--------------------------------------------------------------------------|
|--------------------------------------------------------------------------|


|Intro
|
|Guitar 1
|--------------------------------------------------------------------------|
|--------8---55555-5-55555-5-55555-5------8--55555-5-55555-5-55555-5-------|
|------9--9--55555-5-55555-5-55555-5----9--9-55555-5-55555-5-55555-5-------|
|--5/7-------33333-3-33333-3-33333-3-5/7-----33333-3-33333-3-33333-3-------|
|--------------------------------------------------------------------------|
|--------------------------------------------------------------------------|
|                                                                          |
|Guitar 2                                                                  |
|--------------------------------------------------------------------------|
|--------------------------------------------------------------------------|
|--------------------------------------------------------------------------|
|-7-------3-------------------------7-------3---------------------7--------|
|-7-------3-------------------------7-------3---------------------7--------|
|-7-------3-------------------------7-------3---------------------7--------|
 
 
|Intro
|
|Guitar 1
|--------------------------------------------------------------------------|
|--------8---55555-5-55555-5-55555-5------8--55555-5-55555-5-55555---------|
|------9--9--55555-5-55555-5-55555-5----9--9-55555-5-55555-5-55555---------|
|--5/7-------33333-3-33333-3-33333-3-5/7-----33333-3-33333-3-33333-3----5--|
|------------------------------------------------------------------3----5--|
|------------------------------------------------------------------3----5--|
|                                                                          | 
|Guitar 2                                                                  |
|--------------------------------------------------------------------------|
|--------------------------------------------------------------------------|
|--------------------------------------------------------------------------|
|-7-------3-----------------------7-------3--------------------------------|
|-7-------3-----------------------7-------3--------------------------------|
|-7-------3-----------------------7-------3--------------------------------|
|                                                                          |
|                                                                          |
|Guitar 3 (Very quiet)                                                     |
|--------------------------------------------------------------------------|
|--------------------------------------------------------------------------|
|-171717171717171717171717171717171717171717171717-\-----------------------|
|---------------------------------------------------x3---------------------|
|-151515151515151515151515151515151515151515151515-/-----------------------|
|--------------------------------------------------------------------------|
  ^ Those are 15's and 17's, not 1's, 5's and 7's ^
       (Listen to the song to find out timing)
 


|Verse
|
|Guitar 1
|----------------------------------------------------------|
|----------------------------------------------------------|
|--14/10101010101014/10------------------------------------|
|------------------------15-15-15-15-15--14-14-14-14-14----|
|--12/8-8-8-8-8-8-12/8---12-12-12-12-12--10-10-10-10-10----|
|------------------------12-12-12-12-12--10-10-10-10-10----|
|                            .               .             |
|Guitar 2                                                  |
|----------------------------------------------------------|
|----------------------------------------------------------|
|------------------------------------17-17-17-17-17-17-17--|
|--88-8-8-888-8-8-8--15-15-15-15-15------------------------|
|--88-8-8-888-8-8-8--12-12-12-12-12--15-15-15-15-15-15-15--|
|--88-8-8-888-8-8-8--12-12-12-12-12------------------------|
 

|Guitar 1
|----------------------------------------------------------|
|----------------------------------------------------------|
|----------------------------------------------------------|
|--14/10101010101014/10------------------------------------|
|------------------------3-3-3-3-3-3-3-5-5-5-5-5-5-5-------|
|--12/8-8-8-8-8-8-12/8---3-3-3-3-3-3-3-5-5-5-5-5-5-5-------|
|------------------------3-3-3-3-3-3-3-5-5-5-5-5-5-5-------|
|                                                          |
|Guitar 2                                                  |
|----------------------------------------------------------|
|----------------------------------------------------------|
|----------------------------------------------------------|
|----------------------------------------------------------|
|--88-8-8-888-8-8-8--3-3-3-3-3-3-3-5-5-5-5-5-5-5-----------|
|--88-8-8-888-8-8-8--3-3-3-3-3-3-3-5-5-5-5-5-5-5-----------|
|--88-8-8-888-8-8-8--3-3-3-3-3-3-3-5-5-5-5-5-5-5-----------|
 

|Guitar 1
|----------------------------------------------------------|
|----------------------------------------------------------|
|--14/10101010101014/10------------------------------------|
|------------------------15151515-15-15--14-14-14-14-14----|
|--12/8-8-8-8-8-8-12/8---12121212-12-12--10-10-10-10-10----|
|------------------------12121212-12-12--10-10-10-10-10----|
|                           . .                            |
|Guitar 2                                                  |
|----------------------------------------------------------|
|----------------------------------------------------------|
|------------------------------------17-17-17-17-17-17-17--|
|--88-8-8-888-8-8-8--15-15-15-15-15------------------------|
|--88-8-8-888-8-8-8--12-12-12-12-12--15-15-15-15-15-15-15--|
|--88-8-8-888-8-8-8--12-12-12-12-12------------------------|
 

|Guitar 1
|----------------------------------------------------------|
|----------------------------------------------------------|
|----------------------------------------------------------|
|--14/10101010101014/10------------------------------------|
|------------------------3-3-3-3-3-3-3-5-5-5-5-5-5-5-------|
|--12/8-8-8-8-8-8-12/8---3-3-3-3-3-3-3-5-5-5-5-5-5-5-------|
|------------------------3-3-3-3-3-3-3-5-5-5-5-5-5-5-------|
|                                                          |
|Guitar 2                                                  |
|----------------------------------------------------------|
|----------------------------------------------------------|
|----------------------------------------------------------|
|----------------------------------------------------------|
|--88-8-8-888-8-8-8--3-3-3-3-3-3-3-5-5-5-5-5-5-5-----------|
|--88-8-8-888-8-8-8--3-3-3-3-3-3-3-5-5-5-5-5-5-5-----------|
|--88-8-8-888-8-8-8--3-3-3-3-3-3-3-5-5-5-5-5-5-5-----------|



|Pre-Chorus
|
|Guitar 1
|-------------------------|
|---10---10---10---10-----|
|-----10---10---10---10---|
|-------8----8----8----8--|
|-------------------------|
|-------------------------|
|                         |
|Guitar 1                 |
|-------------------------|
|-------------------------|
|-------------------------|
|----------------------0--|
|----(Pick Slide) -->--0--|
|----------------------0--|
                       .

[ Tab from: http://www.guitaretab.com/t/the-ghost-inside/227491.html ]
|Chorus
|
|Guitar 1
|----------------------------------------------------------------------------------------|
|----------------------------------------------------------------------------------------|
|-----------------------------------------------------------9---10-1010101010------------|
|--8-8-88888-8-88888-151515-151515-141414-141414---0-----0---------------------14141414--|
|--8-8-88888-8-88888-121212-121212-101010-101010---0-00000--7---8--8888888888--10101010--|
|--8-8-88888-8-88888-121212-121212-101010-101010---0-00000---------------------10101010--|
|                                                    ....                                | x4
|Guitar 2                                                                                | 
|----------------------------------------------------------------------------------------| 
|----------------------------------------------------------------------------------------| 
|--10-10101010-9------------------------------------10---9-------------------------------|
|-------------------10--------------------10-10-10----------10----------------10-12-10---|
|---------------------------7---8---10---------------------------7---8---10--------------|
|----------------------------------------------------------------------------------------|
      . . . .



|Breakdown
|
|Guitar 1
|------------------------------------------------------------------|
|------------------------------------------------------------------|
|------------------------------------------------------------------|
|--0000003-000-001--0-00--000000000000003-000-001--0-00----000000--|
|--0000003-000-001--0-00--000000000000003-000-001--0-00----000000--|
|--0000003-000-001--0-00--000000000000003-000-001--0-00----000000--|
|  ......  ..  ..   . ..  ..............  ..  ..   . ..    ......  |
|Guitar 2                                                          |
|------------------------------------------------------------------|
|------------------------------------------------------------------|
|------------------------------------------------------------------|
|--0----------------------000000000----------------0-00----000000--|
|--0----------------------000000000----------------0-00----000000--|
|--0----------------------000000000----------------0-00----000000--|
                          ........                 . ..    ......

|Breakdown
|
|Guitar 1
|------------------------------------------------------------------|
|------------------------------------------------------------------|
|------------------------------------------------------------------|
|--0-00003-000-001--0-00--000000000-00003-000-001--0-00---000000---|
|--0-00003-000-001--0-00--000000000-00003-000-001--0-00---000000---|
|--0-00003-000-001--0-00--000000000-00003-000-001--0-00---000000---|
|    ....  ..  ..   . ..  ........  ....  ..  ..   . ..   ......   |
|Guitar 2                                                          |
|------------------------------------------------------------------|
|------------------------------------------------------------------|
|------------------------------------------------------------------|
|--0-00003-000-001--0-00--000000000-00003-000-001--0-00---000000---|
|--0-00003-000-001--0-00--000000000-00003-000-001--0-00---000000---|
|--0-00003-000-001--0-00--000000000-00003-000-001--0-00---000000---|
|    ....  ..  ..   . ..  ........  ....  ..  ..   . ..   ......   |


|Breakdown
|
|Guitar 1
|--------------------------------------------------------------|
|--------------------------------------------------------------|
|--------------------------------------------------------------|
|--0-00003-000-001--0-00--000000000-000014-00-15-00-12~--------|
|--0-00003-000-001--0-00--000000000-000010-00-12-00-8-~--------|
|--0-00003-000-001--0-00--000000000-000010-00-12-00-8-~--------|
|    ....  ..  ..   . ..  ........  ....   ..    ..            |
|Guitar 2                                                      |
|--------------------------------------------------------------|
|--------------------------------------------------------------|
|--------------------------------------------------------------|
|--0-00003-000-001--0-00--000000000-000014-00-15-00-12~--------|
|--0-00003-000-001--0-00--000000000-000010-00-12-00-8-~--------|
|--0-00003-000-001--0-00--000000000-000010-00-12-00-8-~--------|
|    ....  ..  ..   . ..  ........  ....   ..    ..            |



|Verse 2
|
|Guitar 1
|---------------------------------------------------------------------------------------|
|---------------------------------------------------------------------------------------|
|---------------------------------------------------------------------------------------|
|--15-1515-1515--14--1212121212-14-141414-15-1515-1515-17--14-14-1414-1414151515141414--|
|--12-1212-1212--10--8-8-888-8--10-101010-12-1212-1212-15--10-10-1010-1010101010101010--|
|--12-1212-1212--10--8-8-888-8--10-101010-12-1212-1212-15--10-10-1010-1010101010101010--|
|                                                                                       |
|Guitar 2                                                                               |
|---------------------------------------------------------------------------------------|
|---------------------------------------------------------------------------------------|
|---------------------------------------------------------------------------------------|
|--15-1515-1515--14--1212121212-14-141414-15-1515-1515-17--14-14-1414-1414151515141414--|
|--12-1212-1212--10--8-8-888-8--10-101010-12-1212-1212-15--10-10-1010-1010101010101010--|
|--12-1212-1212--10--8-8-888-8--10-101010-12-1212-1212-15--10-10-1010-1010101010101010--|


|Verse 2
|
|Guitar 1
|----------------------------------------------------------------------------------------|
|----------------------------------------------------------------------------------------|
|----------------------------------------------------------------------------------------|
|--15-1515-1515--14--1212121212-14-141414-15-0000-15-00-17-00-14~------------------------|
|--12-1212-1212--10--8-8-888-8--10-101010-12-0000-12-00-15-00-10~------------------------|
|--12-1212-1212--10--8-8-888-8--10-101010-12-0000-12-00-15-00-10~------------------------|
|                                            ....    ..    ..                            |
|Guitar 2                                                                                |
|----------------------------------------------------------------------------------------|
|----------------------------------------------------------------------------------------|
|----------------------------------------------------------------------------------------|
|--15-1515-1515--14--1212121212-14-141414-15-0000-15-00-17-00-14~------------------------|
|--12-1212-1212--10--8-8-888-8--10-101010-12-0000-12-00-15-00-10~------------------------|
|--12-1212-1212--10--8-8-888-8--10-101010-12-0000-12-00-15-00-10~------------------------|
                                             ....    ..    ..



|Pre-Chorus
|
|Guitar 1
|--8------8-----8-----8-------|
|----6------6-----6-----------|
|------9------9-----9---------|
|------------------------000--|
|------------------------000--|
|------------------------000--|
|                        ...  |
|Guitar 1                     |
|-----------------------------|
|-----------------------------|
|-----------------------------|
|------(Pick Slide)-->---000--|
|------------------------000--|
|------------------------000--|
                         ...


|Chorus
|
|Guitar 1
|----------------------------------------------------------------------------------------|
|----------------------------------------------------------------------------------------|
|-----------------------------------------------------------9---10-1010101010------------|
|--8-8-88888-8-88888-151515-151515-141414-141414---0-----0---------------------14141414--|
|--8-8-88888-8-88888-121212-121212-101010-101010---0-00000--7---8--8888888888--10101010--|
|--8-8-88888-8-88888-121212-121212-101010-101010---0-00000---------------------10101010--|
|                                                    ....                                | x4
|Guitar 2                                                                                | 
|----------------------------------------------------------------------------------------| 
|----------------------------------------------------------------------------------------| 
|--10-10101010-9------------------------------------10---9-------------------------------|
|-------------------10--------------------10-10-10----------10----------------10-12-10---|
|---------------------------7---8---10---------------------------7---8---10--------------|
|----------------------------------------------------------------------------------------|
       . . .


|Outro
|
|Guitar 1                                              "I AM NOT AFRAID!

|--13-12------------------------------13-12-------------------------------|
|--------13------------------13-------------12-------------------13-15-13-|
|------------9-10---10-12-10----12-------------9-10--10-12-10-12----------|
|-------------------------------------------------------------------------|
|-------------------------------------------------------------------------|
|-------------------------------------------------------------------------|
|                                                                         |
|Guitar 2                                                                 | x4
|-------------------------------------------------------------------------|
|-------------------------------------------------------------------------|
|-------------------------------------------5--7--------------------------|
|--8-8-8--8--8--12-12-12-12-10-10-10-0-0-0---------0-0-0-0-10-10-10-------|
|--8-8-8--8--8--12-12-12-12-10-10-10-0-0-0--3--5---0-0-0-0-10-10-10-------|
|--8-8-8--8--8--12-12-12-12-10-10-10-0-0-0---------0-0-0-0-10-10-10-------|
                                     . .



|Finish/Fade Out
|
|Guitar 1
|---------------------------------|
|-----------9-------5-----5-------|
|------10-----10------5-----5-----|
|---8-----8------8------3-----3---| Repeat until faded out
|---------------------------------|
|---------------------------------|
Related for Chrono tab
Chrono chords by The Ghost Inside