The Ghost Inside - Siren Song tab

Hey!
There have been many requests for this song! but i can only give the tab for the 
intro and the verse cos i gotta figure out the rest !! enjoy!

tuning-drop c (cgcfad)

intro:

d|--------------------------------------------------------------------------|
a|--------------------------------------------------------------------------|
f|--------------------------------------------------------------------------|
c|---------------------------------------------3-0--3-----------------------|
g|---------------------------------------------3-0--3-----------------------|
c|-0-00-00-0--0-0-0-0--0000--0-0-00-00-0-0000--3-0--3-----------------------|
   . .. .. .  . . . .  ....  . . .. .. . ....
play tat above riff 2 times then switch into this riff:

d|--------------------------------------------------------------------------|
a|--------------------------------------------------------------------------|
f|--------------------------------------------------------------------------|
c|---------------------------------------------3-0--3-----------------------|
g|---------------------------------------------3-0--3-----------------------|
c|-2-22-22-2--2-2-2-2--2222--2-2-22-22-2-2222--3-0--3-----------------------|
   . .. .. .  . . . .  ....  . . .. .. . ....

and the verse:

d|--------------------------------------------------------------------------|
a|--------------------------------------------------------------------------|
f|--------------------------------------------------------------------------|
c|-------1-------1-------1-3-3-3--------------------------------------------|
g|-------1-------1-------1-3-3-3--------------------------------------------|
c|-0-0-0-1-0-0-0-1-0-0-0-1-3-3-3--------------------------------------------|
   . . .   . . .   . . .

tats all i noe... i will try to post the reast later! have fun!
metal 4 life!!! \m/
Tap to rate this tab
 
# A B C D E F G H I J K L M N O P Q R S T U V W X Y Z