Song name
# A B C D E F G H I J K L M N O P Q R S T U V W X Y Z

The Ghost Of A Saber Tooth Tiger - Schrodingers Cat tab

http://www.youtube.com/watch?v=_Osc5Zc9jSE

Each of the first five chords corresponds to a single line of the verse. Just play 
it and listen to the song. Enjoy!


INTRO

E|----------------------|
B|--5---5---6---5---5---|
G|--5---4---5---5---3---|
D|----------------------|
A|----------5---4---4---|
E|--5---3---------------|


VERSE 1 

E|------------------|
B|--5---5---6---5---|
G|--5---4---5---3---|
D|------------------|
A|----------5---4---|
E|--5---3-----------|

The past is a Pandoraís box
And truth is just a paradox
Like promising to never lie
Let sleeping dogs and lovers lie
You say your love is immortal
Like the blood of a sea turtle
But wasnít dear Dorian Gray alone
As an asteroid in space


CHORUS

E|--2----1----2----|
B|--4----3----2----|
G|--2----1----2----|
D|--4----3----4----|
A|--2----1----4----|
E|--2----1----2----|

A clock puts its hands round,
The hour glassí waist.

E|--2---5---2---1---|
B|--2---5---4---3---|
G|--2---6---2---1---|
D|--4---7---4---3---|
A|--4---7---2---1---|
E|--2---5---2---1---|

Like a tree that falls alone, in the woods without a sound.
Canít be sure that I exist, if you are not around.


Verse 2
From Socrates to Aristotle
Menís greatest thoughts and deeds
Real love notes and cheaply bottles
Floating out to sea
We placed our bets about his fate
Standing over SchrŲdingerís grave
Pavlovís dog chased the cat
His heart bled like a red Rorschach

CHORUS:
The clock puts its hands round,
the hourglassí waist.
Like a tree that falls alone in the woods without a sound.
I canít be sure that I exist when you are not around.
Tap to rate this tab
 
# A B C D E F G H I J K L M N O P Q R S T U V W X Y Z