The Ghost Of A Thousand - Moved As Mountains Dreamt Of By The Sea tab

-------------------------------------------------------------------------------
     Moved As Mountains, Dreamt Of By The Sea - The Ghost Of A Thousand
-------------------------------------------------------------------------------
Tabbed by: Nick Adams
Email: na277@st-andrews.ac.uk
Album: New Hopes, New Demonstations

Good song, great lyrics... tabbed this whilst the hidden solo from 'fed to
the ocean' was doing my head in. Some bits may be unclear but just read them
through and practice. Oh yea, some bits may be bass but they're fun to play
anyway.
Comment if any of the power-chording bits are wrong... I didn't check.

Tuning: Drop D

e|-------------------------------------------------------------|
B|-------------------------------------------------------------|
G|-------------------------------------------------------------|
D|--0---12----0---12----0---12----0---12-12-12-12-12-12-12-12--|
A|--0---11----0---11----0---11----0---11-11-11-11-11-11-11-11--|
D|--0---0-----0---0-----0---0-----0---0--0--0--0--0--0--0--0---|

e|--------------------------------------------------------|
B|--------------------------------------------------------|
G|--------------------------------------------------------|
D|---------------------------------------5p3--------------|
A|-------3-5-3-5---------------3-5-5-(5)-----5p3p0--------|
D|---0-0---------0-0-3-5-3-0-0---------------------5-3----|

e|--------------------------------------|
B|--------------------------------------|
G|--------------------------------------|
D|---------------------------------5b---|
A|-------3-5-3-5---------------3-5------|
D|---0-0---------0-0-3-5-3-0-0----------|

e|--------------------------------------------------------|
B|--------------------------------------------------------|
G|--------------------------------------------------------|
D|---------------------------------------5p3--------------|
A|-------3-5-3-5---------------3-5-5-(5)-----5p3p0--------|
D|---0-0---------0-0-3-5-3-0-0---------------------5-3----|

e|--------------------------------------|
B|--------------------------------------|
G|--------------------------------------|
D|---------------------------------x-x--|
A|-------3-5-3-5---------------3-5-x-x--|
D|---0-0---------0-0-3-5-3-0-0-----x-x--|

Verse: sorry about the repeats, but it'd look stupid
e||--------------|----------------------||(x2)
B||o-------------|---------------------o||
G||--------------|----------------------||
D||--12-------x--|--12------10------5---||
A||o-12-(x15)-x--|--12-(x8)-10-(x4)-5--o||
D||--12-------x--|--12------10------5---||
                                                           (x2)
e|--------------------||-------------------------------------||
B|--------------------||o-----------------------------------o||
G|--------------------||-------------------------------------||
D|--10-------12-------||--10-x---10-10-x--10-10-x--10-10-x---||
A|--10-(x16)-12-(x16)-||o-10-x---10-10-x--10-10-x--10-10-x--o||
D|--10-------12-------||--10-x---10-10-x--10-10-x--10-10-x---||

                                                                         (x2)
e|-------------------|-------------------||-------------------------------||
B|-------------------|-------------------||o-----------------------------o||
G|-------------------|-------------------||-------------------------------||
D|-12----------------|-12----------------||--12-(12)(12)-12-(12)(12)(12)--||
A|-12-x--------------|-12-x--------------||o-12-(12)(12)-12-(12)(12)(12)-o||
D|-12-x-10h12--7p5p0-|-12-x-10h12--7p5p0-||--12--x---x---12--x---x---x----||

**Then replay the intro (up until the verse)**

e|------------------------|------------------------------|----------------|
B|------------------------|------------------------------|----------------|
G|------------------------|------------------------------|----------------|
D|--3------5------0-------|--3------5--------------3-----|----------------|
A|--3-(x8)-5-(x8)-0-(x16)-|--3-(x8)-5-(x8)-5-0-3h5---5-3-|-5-0-3h5p3p0----|
D|--3------5------0-------|--3------5--------------------|-------------3--|

                                                                (x3
e|------------|--------------------||---------|------------------||-------|
B|------------|--------------------||o--------|-----------------o||-------|
G|------------|--------------------||---------|------------------||-------|
D|--3---5---0-|--3-3-x---5-5-x---0-||--0h3-0--|-5-5-x-5-5--3-0---||-0h3-0-|
A|--3---5---0-|--3-3-x---5-5-x---0-||o-0h3-0--|-5-5-x-5-5--3-0--o||-0h3-0-|
D|--3---5---0-|--3-3-x---5-5-x---0-||--0h3-0--|-5-5-x-5-5--3-0---||-0h3-0-|

Outro                                                   (x4)
e||------------------------------------------------------||
B||o----------------------------------------------------o||
G||-----------------------------------------5-5-5-5------||
D||--0-0---------------------0-0------------5-5-5-5--5---||
A||o-0-0--3-5-3-5-0-0-3-5-3--0-0--3-5-5-5---3-3-3-3--5--o||
D||--0-0--0-0-0-0-0-0-3-5-3--0-0--0-0-0-0------------5---||

e|----------------------------------------------|-----------|
B|----------------------------------------------|-----------|
G|--5-5-5-5-5-----5-5-5-5-5-----5-5-5-5-5-------|-----------|
D|--5-5-5-5-5-5---5-5-5-5-5-5---5-5-5-5-5-5---0-|---12\-----|
A|--3-3-3-3-3-5---3-3-3-3-3-5---3-3-3-3-3-5---0-|---12\-----|
D|------------5-------------5-------------5---0-|---12\-----|


************************************

| /   slide up
| \   slide down
| h   hammer-on
| p   pull-off
| ~   vibrato
| +   harmonic
| x   Mute note
| b   Bend
| pb  Pre-bend
| br  Bend release
| pbr Pre-bend release
| brb Bend release bend

************************************
Tap to rate this tab
 
# A B C D E F G H I J K L M N O P Q R S T U V W X Y Z