Song name
# A B C D E F G H I J K L M N O P Q R S T U V W X Y Z

The Ghost Of A Thousand - Knees Toes Teeth tab

Drop D Tuning

STRUCTURE:

Main Riff              x 4
Main Riff Ending       x 1
Pre-verse              x 1
Verse                  x 3
Pre Verse              x 1
Verse                  x 4
Main Riff              x 4
Main Riff Ending       x 1
Interlude Pt 1         x 4
Interlude Pt 2         x 3
Interlude Ending       x 1
Solo                   x 1 (w/ Solo Chord Progression)
Pre-Verse              x 1
Heavy Verse            x 4
Main Riff              x 4
Main Riff              x 4 (w/ Ending Lead Guitar)
Main Riff Ending       x 1
Verse                  x 4
Pre-Verse              x 1

Main Riff
E--------------------------------|
B--------------------------------|
G---6--4-------------------------|
D---6--4--4-0-4-6-66666----------|
A---4--2--4-0-4-6-66666----------|
D---------4-0-4-6-66666----------|


Main Riff Ending
E--------------------------------------|
B--------------------------------------|
G------------6-6666666666666666--------|
D---4-44444--6-6666666666666666-4-0-4--|
A---4-44444--4-4444444444444444-4-0-4--|
D---4-44444---------------------4-0-4--|
                               (^ ^ ^ This part played first time only)

Pre Verse
E----------------------------------------|
B----------------------------------------|
G----------------------------------------|
D--------4------4------4-----------------|
A----------------------------------------|
D---6-6----6-6----6-6----6-6\------------|


Verse
E-----------------------------------------|
B-----------------------------------------|
G-----------------------------------------|
D------4------4------4--------------------|
A-----------------------------------------|
D---6----6-6----6-6----6-4-0-4-6----------|


Interlude Pt 1
E------------------------------------------|
B------------------------------------------|
G------------------------------------------|
D----4-0-4-6-------------------------------|
A----4-0-4-6-------------------------------|
D----4-0-4-6-------------------------------|


Interlude Pt 2
E-----------------------------------------|
B-----------------------------------------|
G--------------x-6-6-x-4-4-x--------------|
D----4-0-4-6---x-6-6-x-4-4-x--0-----------|
A----4-0-4-6---x-4-4-x-2-2-x--0-----------|
D----4-0-4-6------------------0-----------|


Interlude Ending
E------------------------------------------|
B------------------------------------------|
G------------------------------------------|
D----6-666666666666------------------------|
A----6-666666666666------------------------|
D----6-666666666666------------------------|


Solo Rhythm Chord Progression
E--------------------------------------------------------------|
B--------------------------------------------------------------|
G------6--------------6----------------------------------------|
D---2--6--6--4-----2--6--6--6-----2--4--6--9-----2--4--4--4----|
A---2--4--6--4-----2--4--6--6-----2--4--6--9-----2--4--4--4----|
D---2-----6--4-----2-----6--6-----2--4--6--9-----2--4--4--4----|


Solo
E----------------------------------------------------------------------------|
B----------------------------------------------------------------------------|
G-------------------------------/13--10---10-8-------------------------------|
D---13~-11~-------9----------------------------9----9------------------------|
A------------9h11----11--9b^---------------------11----11--9--6-9-6-4-4------|
D-------------------------------------------------------------------------4--|

E------------------------------------------------14-----|
B---------------------------14-16-12---12-14-16----13---|
G---------13-16-13---13-16------------------------------|
D---13-16-----------------------------------------------|
A-------------------------------------------------------|
D-------------------------------------------------------|

E-------------------------------------------------|
B-- 11--11----12----------------------------------|
G--10b-10b------13-11-13p11-----------------------|
D----------------------------h13------------------|
A-------------------------------------------------|
D-------------------------------------------------|
   (I'm not 100% on this section of the solo, sorry)

E---------------------------------------------------------------|
B---------------------------------------------------------------|
G----14-12------------------------------------------------------|
D----------14-12-14-12-9--12b-12b-12b-12b-12b-12b-13p11p9-6~~---|
A---------------------------------------------------------------|
D---------------------------------------------------------------|


Heavy Verse
E---------0---------0-------0----------------------|
B---------0---------0-------0----------------------|
G---------0---------0-------0----------------------|
D---6-6------6-6------6-6------6-4-0-4-------------|
A---6-6------6-6------6-6------6-4-0-4-------------|
D---6-6------6-6------6-6------6-4-0-4-------------|


Ending Lead Guitar
E---------------------------------------------------|
B----16-16-16-14-12-(x3)----21-21-21-21-21-21-21----|
G----------------13---------------------------------|
D---------------------------------------------------|
A---------------------------------------------------|
D---------------------------------------------------|

This is my first submission, but I have used this website a lot over the years so its 
only fair
I contribute somewhat so I've tried my hardest to make it an easy tab to use. Hope this helps
someone. Check out my band linked below if you get the chance!

Corb

www.thekidisfireworks.bandcamp.com
Tap to rate this tab
 
# A B C D E F G H I J K L M N O P Q R S T U V W X Y Z