Song name
# A B C D E F G H I J K L M N O P Q R S T U V W X Y Z

The Ghost - Red Slippers Red Wheels Midwest Reprise tab

-------------------------------------------------------------------------------
		  Red Slippers Midwest Reprise - The Ghost


-------------------------------------------------------------------------------
Tabbed by: Rawker1

This is the version from their website, minus the very end
of the song as it was too tough to hear. Great Band.
There's a different version on their album 'This is a Hospital' on Solidarity Records.


Email:

www.myspace.com/theghostmusic

Tuning: Standard

INRO/VERSE

e|---------2-----0-----3-------------------------------------------------------|
B|---------3-----0-----3-------------------------------------------------------|
G|---------2-----1-----0-----2p0----0------------------------------------------|
D|---------0-----2-----0--------0h2--------------------------------------------|
A|---------0-----2-----2-------------------------------------------------------|
E|---------------0-----3-------------------------------------------------------|

CHORUS

e|------------2-----3--------------------------------------------------------|
B|------------3-----3--------------------------------------------------------|
G|-------1----2-----0--------------------------------------------------------|
D|-------2----0-----0--------------------------------------------------------|
A|-------2----0-----3--------------------------------------------------------|
E|-------0----------2--------------------------------------------------------|

Basically has just two parts to that repeat throughout.

| /  slide up
| \  slide down
| h  hammer-on
| p  pull-off
| ~  vibrato
| +  harmonic
| x  Mute note
===============================================================================
Tap to rate this tab
# A B C D E F G H I J K L M N O P Q R S T U V W X Y Z