Song name
# A B C D E F G H I J K L M N O P Q R S T U V W X Y Z

The Glitch Mob - Fortune Days tab

Capo on 2nd

E|--------------------------------------------------|
B|--------------------------------------------------|
G|--9--9--7--5--7--7--5--7--7--7--5--7--7--7--5--7--|     x2
D|--------------------------------------------------|
A|--------------------------------------------------|
E|--------------------------------------------------|


E|--------------------------------------------------------------------|
B|--------------------------------------------------------- (x16)-----|
G|--5--5--4--2--4--4--2--4--4--4--2--4--4--4--2--4--2--2--2--2--2--2--|
D|--------------------------------------------------------------------|
A|--------------------------------------------------------------------|
E|--------------------------------------------------------------------|


E|--------------|
B|--------------|
G|--4--5--4--2--|
D|--------------|
A|--------------|
E|--------------|

Meanwhile, the other guy plays:

E|-----------------------------|
B|-----------------------------|
G|--2--9--7--5--4--2--0--0--2--|
D|-----------------------------|
A|-----------------------------|
E|-----------------------------|
Tap to rate this tab
# A B C D E F G H I J K L M N O P Q R S T U V W X Y Z