Song name
# A B C D E F G H I J K L M N O P Q R S T U V W X Y Z

The Glitch Mob - Drive It Like You Stole It tab

(/) Slide Up  (\) Slide Down  (h) Hammer On  (p) Pull Off  (b) Bend (r) Release (v) Vibrato

Capo 2

E|--------------------------------------------|
B|--4--4--4--7--4--4--4--2--2--4--2--4--2--4--|
G|--------------------------------------------|
D|--------------------------------------------|
A|--------------------------------------------|
E|--------------------------------------------|



E|--------------------------------------------------|
B|--2--2--------------------------------------7--4--|
G|--------3--3--1--1--1--3--1--3--1-----------------|
D|-----------------------------------6--4--1--------|
A|--------------------------------------------------|
E|--------------------------------------------------|

This is the pattern played at around 4:00 of the son Drive It Like You Stole It

                                                        http://www.guitartabcreator.com
Tap to rate this tab
# A B C D E F G H I J K L M N O P Q R S T U V W X Y Z