Song name
# A B C D E F G H I J K L M N O P Q R S T U V W X Y Z

The Glitch Mob - Dream Within A Dream tab

This took me really quite a while!
But i think its worth it.
**************************************
 

Riff1 [01:04]

E----------------|     --------------|-----------------|
H----------------|     --------------|-----------------|
G--5---------3---|     --------------|-5---------------|
D----3-6-5-6---6-|(x4) -3-5656565-3--|---3-5-6-5-3-1-3-|
A----------------|     --------------|-----------------|
E----------------|     --------------|-----------------|

Riff2 [02:08}

E------------------|-----------------|
H------------------|-----------------|
G--5-3-3-5-3-------|-----------------|
D------------6-6-6-|-5-5-5-6-5-3-3-3-| (x8)
A------------------|-----------------|
E------------------|-----------------|

Vocal [02:44]

E-----| |-----------|------4--3--|-----4-3------|
H-9-8-| |-6-6--4----|-6-6--------|-6-6-----6-4--|
G-----| |---------5-|------------|--------------|
D-----| |-----------|------------|--------------|
A-----| |-----------|------------|--------------|
E-----| |-----------|------------|--------------|

Riff3 [03:18] Flutething

E-13------------|-15------------|-16---18-16-15-13-|
H------13-16-13-|------13-16-13-|------------------|
G---------------|---------------|------------------| (x3)
D---------------|---------------|------------------|
A---------------|---------------|------------------|
E---------------|---------------|------------------|

Riff1 [04:22]

Vocal [04:38]
Tap to rate this tab
 
# A B C D E F G H I J K L M N O P Q R S T U V W X Y Z