Song name
# A B C D E F G H I J K L M N O P Q R S T U V W X Y Z

The Glitch Mob - We Swarm tab

-------------------------------------------------------------------------------
                             WE SWARM - The Glitch Mob
-------------------------------------------------------------------------------
Tabbed by: Seismatters

Tuning: Standard E A D G B E

Main Bass Riff
e|---------------------------------------------------------------------------|
B|---------------------------------------------------------------------------|
G|---------------------------------------------------------------------------|
D|-------------------------------------------------------2--4----------------|
A|-2--2--2-2-0-2--2--2-2-0-------------------------2-5-2---------------------|
E|-------------------------14/2--2--2-2-0--2--2--2---------------------------|

Main Riff
e|---------------------------------------------------------------------------|
B|-7--5--3--2--0--2--3--2-3-5--7--5--7--5--3--2--0-2-3----5-5----7-7----5-5--|
G|---------------------------------------------------------------------------|
D|---------------------------------------------------------------------------|
A|---------------------------------------------------------------------------|
E|---------------------------------------------------------------------------|

Transition 1
e|-----------------14------------------14------------------------------------|
B|-12--12-12-12-15----12-12-12-12-12-15--------------------------------------|
G|---------------------------------------------------------------------------|
D|---------------------------------------------------------------------------|
A|---------------------------------------------------------------------------|
E|---------------------------------------------------------------------------|

e|--------------9-12-------------9-12-14-10-----------------------------------|
B|-10--10-10-10------10-10-10-10---------------------------------------------|
G|---------------------------------------------------------------------------|
D|---------------------------------------------------------------------------|
A|---------------------------------------------------------------------------|
E|---------------------------------------------------------------------------|

Transition 2
e|---------------------------------------------------------------------------|
B|-3-2--2-0--0------0--------------------------------------------------------|
G|-------------2--2----------------------------------------------------------|
D|--------------------4------------------------------------------------------|
A|--------------------2------------------------------------------------------|
E|---------------------------------------------------------------------------|

Chords for final part of song (where you play main riff):
Bm---|Am---|Bm---|Am---|Bm---|Am---|Gm---|Am---|Bm---|

************************************

| /   slide up
| \   slide down
| h   hammer-on
| p   pull-off
| ~   vibrato
| +   harmonic
| x   Mute note
| b   Bend
| pb  Pre-bend
| br  Bend release
| pbr Pre-bend release
| brb Bend release bend

************************************
Tap to rate this tab
# A B C D E F G H I J K L M N O P Q R S T U V W X Y Z