Song name
# A B C D E F G H I J K L M N O P Q R S T U V W X Y Z

The Gloria Record - Tired And Uninspired tab

Great band and they its weird to see how many tabs have been submited over the years for 
songs because i can remember when there almost none!

Everyone wants this tab lol
its my first and think the other was slightly out but let me know what you think!

I prefer to play this drop d but you can play it normal - what ever suits you best!

Main/Verse Riff

E--------------------------------------|
B----5---------------------------------|
G----6-----1----4-----3----------------|
D----6-----2----6-----4----------------|
A----4-----2----6-----4----------------|
D----------2----6-----4----------------|

Bridge

You are the earth...

E--------------------------------------|
B--------------------------------------|
G----8-----3----1----------------------|
D----9-----4----2----------------------|
A----9-----4----2----------------------|
D----9-----4----2----------------------|

Chorus

Cos lately ive been tired...

E--------------------------------------|
B--------------------------------------|
G----4-----3----1----------------------|
D----6-----4----2----------------------|
A----6-----4----2----------------------|
D----6-----4----2----------------------|

thats it really!
just repeat
Tap to rate this tab
# A B C D E F G H I J K L M N O P Q R S T U V W X Y Z