Song name
# A B C D E F G H I J K L M N O P Q R S T U V W X Y Z

The Glorious Unseen - Forever Holy tab

Capo 4
Tuning
D
B
G
D
A
D
[Everything is relative to capo]

Intro+Verse
|-----------0----------------------0-----------0---|
|--------5------------8---------7----------10------|
|---------------------------------------11---------|
|-----5------------9---------7---------------------|
|--3------------7---------5----------9-------------|
|--------------------------------------------------|

Bridge
|-----------0--------------0----------|
|--------5--------------7-------------|
|-------------------------------------|
|-----5--------------7----------------|
|--3--------------5-------------------|
|-------------------------------------|

Chorus
   B         F#m*       G#m        F#m        E
|--0--|    |--0--|    |--0--|    |--0--|    |--0--|
|--8--|    |--10-|    |--8--|    |--7--|    |--5--|
|--0--|    |--0--|    |--0--|    |--0--|    |--0--|
|--9--|    |--7--|    |--5--|    |--7--|    |--5--|
|--10-|    |--9--|    |--7--|    |--5--|    |--3--|
Strum Chords in this order- B,F#m*,G#m,F#m,E,G#m,E,F#m (listen to the song)
[The asterisk is only to identify one F#m to the other] =)

[Dlee]
 
Tap to rate this tab
 
# A B C D E F G H I J K L M N O P Q R S T U V W X Y Z