Song name
# A B C D E F G H I J K L M N O P Q R S T U V W X Y Z

The Glorious Unseen - Hear Our Prayers tab

Dm F C Bm
For verses

For choruses
‎|--------1-----1-|----------1-------1-|---------1------1--|---------1-----1|
|----1-----1-----|------1-----1-------|-----1-----1-------|-----1-----1----|
|----------------|--------------------|-------------------|---2---2-----2--|
|--3---3-----3---|-----2---2-----2----|---3---3-----3-----|----------------|
|1---------------|-3------------------|-------------------|-3--------------|
|----------------|--------------------|-1-----------------|----------------|

For Bridge same as chorus except the Second Guitar plays this on the first picking 
pattern the second time through.

|--------------------|
|-----------10---10--|
|------10------------|
|----8----8----8-----|
|--8-----------------|
|--------------------|

Then just play

|--------------|
|--------------|
|--3--5-----5--|
|--3--5--3--5--|
|--1--3--3--3--|
|--------1-----|

God Bless and have fun!
Tap to rate this tab
 
# A B C D E F G H I J K L M N O P Q R S T U V W X Y Z