Song name
# A B C D E F G H I J K L M N O P Q R S T U V W X Y Z

The Glorious Unseen - Take Whats Left Of Me tab

Take What's Left Of Me
The Glorious Unseen
The Hope That Lies In You

*Tune your high e string to eb*

Intro:

   Bsus4                                           D#m
d#|----------------------------------------------------------|
 b|----------------------------------------------------------|
 g|----------------------------------------------------------|
 d|13-13-13-13-13-13-13-13-13-13-13-13-13-13-13-13-13-13-----|
 a|----------------------------------------------------------|
 E|----------------------------------------------------------|
                                                   E5
d#|----------------------------------------------------------|
 b|----------------------------------------------------------|
 g|----------------------------------------------------------|
 d|11-11-11-11-11-11-11-11-11-11-11-11-11-11-11-11-11-11-----|
 a|----------------------------------------------------------|
 E|----------------------------------------------------------|
                                                    C#m7
d#|----------------------------------------------------------|
 b|----------------------------------------------------------|
 g|----------------------------------------------------------|
 d|9--9--9--9--9--9--9--9--9--9--9--9--9--9--9--9--9--9------|
 a|----------------------------------------------------------|
 E|----------------------------------------------------------|
                                                    Bsus4
d#|----------------------------------------------------------|
 b|----------------------------------------------------------|
 g|----------------------------------------------------------|
 d|14-14-14-14-14-14-14-14-14-14-14-14-14-14-14-14-14-14-----|
 a|----------------------------------------------------------|
 E|----------------------------------------------------------|
                                                    D#m
d#|----------------------------------------------------------|
 b|----------------------------------------------------------|
 g|----------------------------------------------------------|
 d|13-13-13-13-13-13-13-13-13-13-13-13-13-13-13-13-13-13-----|
 a|----------------------------------------------------------|
 E|----------------------------------------------------------|
                                                    E5
d#|----------------------------------------------------------|
 b|----------------------------------------------------------|
 g|----------------------------------------------------------|
 d|11-11-11-11-11-11-11-11-11-11-11-11-11-11-11-11-11-11-----|
 a|----------------------------------------------------------|
 E|----------------------------------------------------------|
                                                    C#m7
d#|----------------------------------------------------------|
 b|----------------------------------------------------------|
 g|----------------------------------------------------------|
 d|9--9--9--9--9--9--9--9--9--9--9--9--9--9--9--9--9--9------|
 a|----------------------------------------------------------|
 E|----------------------------------------------------------|
                                                   Bsus4
d#|----------------------------------------------------------|
 b|----------------------------------------------------------|
 g|----------------------------------------------------------|
 d|14-14-14-14-14-14-13-13-13-13-13-13-11-11-11-11-13-~-~-~--|
 a|----------------------------------------------------------|
 E|----------------------------------------------------------|

Verse 1:

Bsus4           D#m
When my hope is gone
          E5         C#m7
how can I carry on?
Bsus4              D#m
And if my faith is strong
                E5               C#m7
will You be the truth Im hanging on?

Chorus:

F#7                            G#m         E      F#7
                Will You be my eyes when I cannot see?
d#|----------15----------------------------------------------|
 b|----12------------------------12----12----11---11---------|
 g|/15----15------------------13----13-----9----9------------|
 d|----------------------------------------------------------|
 a|----------------------------------------------------------|
 E|----------------------------------------------------------|
                               G#m          E      F#7
                Will You be my voice when I cannot speak?
d#|----------15----------------17----17-----15----15---------|
 b|----12-------------------------16----16-----14----14------|
 g|/15----15-------------------------------------------------|
 d|----------------------------------------------------------|
 a|----------------------------------------------------------|
 E|----------------------------------------------------------|
                              G#m           E      F#7
               Will You be my hands where I cannot reach?
d#|----------15----------------------------------------------|
 b|----12------------------------12----12----11---11---------|
 g|/15----15------------------13----13-----9----9------------|
 d|----------------------------------------------------------|
 a|----------------------------------------------------------|
 E|----------------------------------------------------------|
                     G#m        F#/A#   Bsus4
             Father, take whats left of me.
d#|----------15---------15--------15------15-----------------|
 b|----12--------12--------12-------12-----------------------|
 g|/15----15---------15--------15------15--------------------|
 d|----------------------------------------------------------|
 a|----------------------------------------------------------|
 E|----------------------------------------------------------|

repeat Intro:
with lyrics woven in -
Will You take whats left of me?

Verse 2:

Bsus4         D#m
And if I fall away
              E5         C#m7
will You come rescue me?
Bsus4            D#m
And in my broken state
              E5                C#m7
will You be a light to guide my way?

Chorus:

Bridge:

Bsus4 - F#7 - G#m - E

                 Bsus4               F#7
Will You take me back to that place again?
                G#m          E
Where I know my Savior as my friend
                  Bsus4             F#7
where You show me grace that has no end
             G#m               E
where I come alive within Your plan

Will you take me there?

Chorus:

Intro:
with lyrics woven in:
Take whats left... take whats left of me, oh Lord.
Will You take... will You take whats left.


Oh Lord, take me, take me.
(Will You be my hands where I cannot reach?)
(Will You be my eyes when I cannot see?)
Will You take whats left?
(Will You be my voice when I cannot speak?)
Oh, take whats left, oh Lord.
(Will You be?)
Tap to rate this tab
# A B C D E F G H I J K L M N O P Q R S T U V W X Y Z