Song name
# A B C D E F G H I J K L M N O P Q R S T U V W X Y Z

The Go Team - Panther Dash tab

                          PANTHER DASH - The Go! Team

Tabbed by: Ian C.
E-mail: ian.zampbell@gmail.com

Tuning: EADGBe

Chords:

Chorus: Bbm - Eb x 3
Bbm - G#

Verse: Bbm - Bbm - F# - C#

Bridge: Ebm - Fm x2 + C#maj7



Tab:

Chorus:
e|---8-8-6---------8-8-6---------8-8-6-----------------|
B|----------8-8-6---------8-8-6---------8-8-6--6-6-6---|
G|-----------------------------------------------------|
D|-----------------------------------------------------|
A|-----------------------------------------------------|
E|-----------------------------------------------------|

Verse:
e|---------------------------------------------------------------------|
B|---------------------------------------------------------------------|
G|-------------------------------------------------------5-------------|
D|-------------------6-6-----------------3-3-4-4-6-6-6-6---6-----------|
A|-------8-8-6-6-8-8-----8-8-6-6-8-6-4-4---------------------6-6-8-8---|
E|---6-6---------------------------------------------------------------| x4


The Go! Team band website -- www.thegoteam.co.uk
Tap to rate this tab
 
# A B C D E F G H I J K L M N O P Q R S T U V W X Y Z