Song name
# A B C D E F G H I J K L M N O P Q R S T U V W X Y Z

The Go Team - Ladyflash tab

-------------------------------------------------------------------------------
			      LADYFLASH - Go! Team
-------------------------------------------------------------------------------
Tabbed by: Máté Szabó
Email: szabo.mate@metroplex.hu

Tuning: Standard

Intro:
e|---|
B|---|
G|---|
D|---|
A|-6-|
E|---|


Verse & Chorus:
e|-------------------------------|
B|-4-4---4-4-4-----8-8-8---8-8-8-|
G|-----3-------3---------7-------|
đ|-------------------------------|
A|-------------------------------|
E|-------------------------------|


Bridge Chords

 G#5 G5 F5 A#5
e|-------------|
B|-9---8--6-11-|
G|-8---7--5-10-|
D|-6---5--3--8-|
A|-------------|
E|-------------|


| /  slide up
| \  slide down
| h  hammer-on
| p  pull-off
| ~  vibrato
| +  harmonic
| x  Mute note
===============================================================================
Tap to rate this tab
 
# A B C D E F G H I J K L M N O P Q R S T U V W X Y Z