Song name
# A B C D E F G H I J K L M N O P Q R S T U V W X Y Z

The Go Team - Huddle Formation tab

riff 1
e:---------------|---------------|
B:---------------|---------------|
G:------------10-|---------------|
D:-7--10--12-----|-7--10--12--10-|   x2
A:---------------|---------------|
E:---------------|---------------|

riff 2
e:-----------------|
B:-----------------|
G:------10--12--10-|  x2
D:--12-------------|
A:-----------------|
E:-----------------|

solo
e:---------------------------|----------------------|
B:-----------10--------10----|----------------------|
G:--10-10-12-----12-10----12-|-10-------10----------|
D:---------------------------|----12-10----10----10-|
A:---------------------------|----------------12----|
E:---------------------------|----------------------|

e:----------------------|-------------------------------|
B:-------10-------10----|-------------------------------|
G:-10-12----12-10----12-|-10-------10-------------10-12-|
D:----------------------|----12-10----10----10-12-------|
A:----------------------|----------------12-------------|
E:----------------------|-------------------------------|

riff 3
e:-------|
B:-------|
G:-------|
D:-7-10--| x2
A:-------|
E:-------|

outro
e:--------|
B:--------|
G:--------|
D:-12--10-| 
A:--------|
E:--------|

order: 
riff 1
riff 2
riff 1
riff 2
riff 1
riff 2
riff 2
solo
riff 1
riff 2
riff 2
riff 3
outro
Tap to rate this tab
# A B C D E F G H I J K L M N O P Q R S T U V W X Y Z