Song name
# A B C D E F G H I J K L M N O P Q R S T U V W X Y Z

The Go Team - Phantom Broadcast tab

This song is by the Go! Team and is off the Help! a london child album which not many
people will now but it's a really good song. You ahve to listen to it first to know the
rhythms and stuff and you should buy the albums or some of the singles because they're
really good and it's all for charity. Also, this tab is played with this weird guitary
sound thing but its nice.

|---------------------------|
|---------------------------|
|---------------------------|
|---5-3-1-0-----8-8----8-10-| sustain last note for 4 beats
|-----------3-1-----10------|
|---------------------------|

|--------------------------------|
|--------------------------------|
|---------------8----------------|
|---8-8----8-10--10-8-5-3-1-3-5--|
|-------10---------------------1-| sustain last note for 4 beats
|--------------------------------|

|----------------------------------|
|----------------------------------|
|---------------------0------------|
|---1-3-1-3-5-----1-3---3-1--------|
|-------------1-3----------3-1---1-| sustain last note for 4 beats
|------------------------------3---|

Repeat all of that again

|-------------------||------------------|
|--------3----------||------3-----------|
|--3-5-5---5-3--3-5-||--5-5---5-3-------|
|-------------5-----||------------5-3---|
|-------------------||----------------3-|
|-------------------||------------------|

|------------------|
|------------------|
|------0-----------|
|--1-3---3-1-------|
|------------3-1-3-|
|------------------|

|------------------||------|
|------------------||------|
|------0-----------||------|
|--1-3---3-1-------||------|
|------------3-1-3-||--3---|
|------------------||------|

After that various bits repeat but because there's no words in the song it;'s difficult 
keep track and stuff.
Tap to rate this tab
# A B C D E F G H I J K L M N O P Q R S T U V W X Y Z