Song name
# A B C D E F G H I J K L M N O P Q R S T U V W X Y Z

The Godz - Go Away tab

Hey all, tab number three from me. Intro from the Ohio based band the Godz, there arn't 
any tabs for these guys up! Which I feel is a shame as their first album is a truly 
unknown gem of the rock genre!

e[------------------------------------]
B[------------------------------------]
G[-----------------2~-----------------]
D[-------------2-4----0-4-0-5-0-4-0---] x3 Only slide first bar of song.
A[-----0-0-3-4------------------------]
E[-12/--------------------------------]

e[------------------------------------]
B[------------------------------------]
G[------------------------------------]
D[-----------------2~-----------------] x1 Then back to the first part
A[-------------2-4----0-4-0-5-0-4-0---]    remember no slide!
E[-----0-0-3-4------------------------]

e[----------------------------]
B[----------------------------]
G[-2b-2-2-2-2-2rp0~~~~~~~2~---] Little intro solo.
D[----------------------------]
A[----------------------------]
E[----------------------------]


http://www.thegodz.net/
Tap to rate this tab
 
# A B C D E F G H I J K L M N O P Q R S T U V W X Y Z