Song name
# A B C D E F G H I J K L M N O P Q R S T U V W X Y Z

The Good Life - October Leaves tab

Note: this is based on the acoustic version that was on the bonus disc
that was in some versions of Album of the Year. As such, it has none of
the lead sections in the album version. However, if you listen closely,
you can hear the main guitar playing this part in the background.

Intro/Main riff:
e|-------0---------4---------0-------------|
B|-9---------5---------2--------0----------|
G|---8---------6---------2--------1--------|
D|-----9---------6---------2--------2------|
A|-7---------4---------0-------------------|
E|------------------------------0----------|
I stumbled in at 3 a.m.but you didn't want to
I tried again at half past ten; you still didn't want to

A                       F#m                 
Your hips have this way of saying no way

e|-------4------------------0--------0--|
B|-5---------4-----4--2--------2--------|
G|---6---------4--------2--------2------|
D|-----6---------4--------2--------2----|
A|-4---------2--------0--------0--------|
E|--------------------------------------|
An impenetrable barricade

e|-0--0--0------4--4-4-------------4-----------------0-|
B|-0--0----0----4--4---4---4-5--------4-----4--2-------|
G|-1--1------1--5--5-----5-----6--------4--------2-----|
D|-2--2---------6--6-------------6--------4--------2---|
A|-2--2---------6--6---------4--------2--------0-------|
E|-0--0---------4--4-----------------------------------|
Something I said? Something I did? What's made you so defensive? 

e|-0--0--0------4--4-4-------------4-----------------0-------0-|
B|-0--0----0----4--4---4---4-5--------4-----4--2-------2-------|
G|-1--1------1--5--5-----5-----6--------4--------2-------2-----|
D|-2--2---------6--6-------------6--------4--------2-------2---|
A|-2--2---------6--6---------4--------2--------0-------0-------|
E|-0--0---------4--4-------------------------------------------|
Something you heard? Something you learned? 
The seasons changing, its for the worse...


You used to call me on your break, but you've been so busy
You used to bring me tomato soup... but you keep forgetting

A                             F#m
As the groundskeeper rakes up the October leaves
 
e|-------4------------------0--------0--|
B|-5---------4-----4--2--------2--------|
G|---6---------4--------2--------2------|
D|-----6---------4--------2--------2----|
A|-4---------2--------0--------0--------|
E|--------------------------------------|
It occurs to me, trees can't hide anything

e|-0--0--0------4--4-4-------------4-----------------0-|
B|-0--0----0----4--4---4---4-5--------4-----4--2-------|
G|-1--1------1--5--5-----5-----6--------4--------2-----|
D|-2--2---------6--6-------------6--------4--------2---|
A|-2--2---------6--6---------4--------2--------0-------|
E|-0--0---------4--4-----------------------------------|
Something I said? Something I did? You've been acting so distant
e|-0--0--0------4--4-4-------------4-----------------0-|
B|-0--0----0----4--4---4---4-5--------4-----4--2-------|
G|-1--1------1--5--5-----5-----6--------4--------2-----|
D|-2--2---------6--6-------------6--------4--------2---|
A|-2--2---------6--6---------4--------2--------0-------|
E|-0--0---------4--4-----------------------------------|
Something you heard? Something you learned? 
The trees are barren, the leaves have turned 

e|-------4------------------0-|
B|-5---------4-----4--2-------|
G|---6---------5--------2-----|
D|-----6---------6--------2---|
A|-4------------------0-------|
E|-----------4----------------|
The days when we made it the world was green 

e|-------4------------2-2-2-0--0-0------0--0-0-----|
B|-5---------4-----4--4-4-4-2--2---2----2--2---2---|
G|---6---------5------4-4-4-2--2-----2--2--2-------|
D|-----6---------6----4-4-4-2--2--------2--2-------|
A|-4------------------2-2-2-0--0--------0--0-------|
E|-----------4-------------------------------------|
Now autumn has fallen, everything's changed


October leaves... 

e|-------4------------------0-|
B|-5---------4-----4--2-------|
G|---6---------5--------2-----|
D|-----6---------6--------2---|
A|-4------------------0-------|
E|-----------4----------------|
I woke up this morning, you were off to work 

e|-------4------------2-2-2-0--0-0------0--0-0-----|
B|-5---------4-----4--4-4-4-2--2---2----2--2---2---|
G|---6---------5------4-4-4-2--2-----2--2--2-------|
D|-----6---------6----4-4-4-2--2--------2--2-------|
A|-4------------------2-2-2-0--0--------0--0-------|
E|-----------4-------------------------------------|
No kisses, no coffee, no morning paper...

Tap to rate this tab
 
# A B C D E F G H I J K L M N O P Q R S T U V W X Y Z