The Good Life - Night And Day tab

Made using the acoustic version of the song. 

Intro: 

E ------1--1-------0--0---|
B ------2--2-------1--1---|
G ------2--2----2--2--2---|
D ---3--------------------|
A ------------------------|
E ------------------------|



Verse:

 ------1--1-----1--1---|------1--1-----1--1---|------0--0-----0--0---|------1--1-----1--1---|
 ------2--2-----2--2---|------3--3-----3--3---|------2--2-----2--2---|------3--3-----3--3---|
 ------3--3-----3--3---|------2--2--2--2--2---|------2--2-----2--2---|------3--3-----3--3---|
 ------------3---------|---0------------------|------------2---------|------------3---------|
 ---1------------------|----------------------|---0------------------|---1------------------|
 ----------------------|----------------------|----------------------|----------------------|


 ------0--0-----0--0---|------1--1-----1--1---|------1--1-----1--1---|------1--1-----0--0---|
 ------2--2-----2--2---|------3--3-----3--3---|------3--3-----3--3---|------1--1-----2--2---|
 ------2--2-----2--2---|------3--3-----3--3---|------2--2-----3--3---|------2--2-----0--0---|
 ------------2---------|------------3---------|---0------------------|---3------------------|
 ---0------------------|---1------------------|------------1---------|------------3---------|
 ----------------------|----------------------|----------------------|----------------------|


On verse two, repeat last two bars on:

      "to write all those words she's too scared to tell; 
      those sad, short stories of a girl curled up in her shell."

Chorus: 

Repeat 2x

 ------1--1-----1--1---|------1--1-----0--0---|------1--1----0--0---|------1--1-----1--1---|
 ------3--3-----3--3---|------1--1-----1--1---|------1--1----1--1---|------2--2-----2--2---|
 ------2--2-----2--2---|------2--2-----0--0---|------2--2----0--0---|------3--3-----3--3---|
 ---0------------------|----------------------|---------------------|------------3---------|
 ------------0---------|------------3---------|------------3--------|---1------------------|
 ----------------------|---1------------------|---1-----------------|----------------------|

Then play:

 ------1--1-----1--1---|
 ------2--2-----2--2---|
 ------3--3-----3--3---|
 ------------3---------|
 ---1------------------|
 ----------------------|


Bridge:

 ------1--1--1---------|------1--1--1---------|------0--0--0---------|------1--1--1---------|
 ------2--2--2---------|------3--3--3---------|------2--2--2---------|------3--3--3---------|
 ------3--3--3---------|------2--2--2---------|------2--2--2---------|------3--3--3---------|
 ------------3---------|---0--------0---------|------------2---------|------------3---------|
 ---1--------1---------|----------------------|---0--------0---------|---1--------1---------|
 ----------------------|----------------------|----------------------|----------------------|


 ------0--0-----0--0---|------1--1------------|---1--------1---------|---1--------0---------|
 ------2--2-----2--2---|------3--3------------|---3--------3---------|---1--------2---------|
 ------2--2-----2--2---|------3--3------------|---2--------3---------|---2--------0---------|
 ------------2---------|------------3---------|---0--------3---------|---3--------2---------|
 ---0------------------|---1------------------|------------1---------|---3--------3---------|
 ----------------------|----------------------|----------------------|---1------------------|


So the basic structure is: 

Intro (4x)
Verse
Intro (2x)
Verse 2
Intro (4x)
Bridge
Intro (4x)
Tap to rate this tab
 
# A B C D E F G H I J K L M N O P Q R S T U V W X Y Z