Song name
# A B C D E F G H I J K L M N O P Q R S T U V W X Y Z

The Good Life - Album Of The Year tab

This is my first entry - feedback welcome!
I think it sounds quite close to the CD, but play around and move some of the notes on 
5th string to the 4th for something different.

Add onto nickkyleson's chords for the full song (Thanks Nickky!)

e-------------------------------------------------|
b-------------------------------------------------|
g--12h14p12---------------------------------------|
d-----------12--14--------------------------------|
a-----------------17-14~-15\14--------------------|
e-------------------------------------------------|

e-------------------------------------------------|
b-------------------------------------------------|
g--12h14p12---------------------------------------|
d-----------12--14--------10/---------------------|
a-----------------17-14~--------------------------|
e-------------------------------------------------|

e-------------------------------------------------|
b-------------------------------------------------|
g--12h14p12----16-14-12---------------------------|
d-----------12----------17-16-14------------------|
a-------------------------------------------------|
e-------------------------------------------------|

e-------------------------------------------------|
b-------------------------------------------------|
g--12h14p12---------------------------------------|
d----------12--14-12------------------------------|
a--------------------14-12-10-12-10-12-14--15-----|
e-------------------------------------------------|
Tap to rate this tab
# A B C D E F G H I J K L M N O P Q R S T U V W X Y Z