Song name
# A B C D E F G H I J K L M N O P Q R S T U V W X Y Z

The Good Life - October Leaves tab

-------------------------------------------------------------------------------
			     October Leaves - The Good Life
-------------------------------------------------------------------------------
Tabbed by: K.k.A.

  My first tab, dedicated to my good friend and fellow guitarist, Dan.

    I listened to the acoustic demo of Album of the Year to tab this out. Obviously the 
not right but, you'll get the idea, it's an easy       song.

e|-4-----0------0-----4------------0------------------------|
B|---4------------2----------2------------0-----------------|
G|-----4------------1----------2------------1---------------|
D|-2-----------------------------2------------2-------------|
A|--------------4------------0------------------------------|
E|----------------------------------------0-----------------|

And that's pretty much it throughout the song.

===============================================================================
Tap to rate this tab
# A B C D E F G H I J K L M N O P Q R S T U V W X Y Z