Song name
# A B C D E F G H I J K L M N O P Q R S T U V W X Y Z

The Good The Bad And The Queen - Greem Fields tab

This is how I like to play along to Green Fields by TGTB&TQ. (This is my first
tab so please be gentle!)

Intro:
e----------------------------------------------------------|
B----------------------------------------------------------|
G------3----3----3----2----3----3----3----2----3----3----3-|
D----------------------------------------------------------|
A----------------------------------------------------------|
E---3----3----3----1----3----3----3----1----3----3----3----|

Verse:
'I wrote this song, years ago...' (x2)
e-----------------------------------------------------------------------------------|
B---------------------------------------------3----3----3----3----------------------|
G----3----3----3----3----3----3----3----3-------------------------------------------|
D-----------------------------------------------------------------3----3----3----3--|
A------------------------------------------1----1----1----1----5----5----5----5-----|
E-3----3----3----3----3----3----3----3----------------------------------------------|

Chorus:
'We saw the green fields...'

e------------------------------------------------------------------|
B------------------------------------------------------------------|
G------------------------------------------------------------------|
D--0-------------------0-------------------------------------------|
A---------3----1--3-------------------1-----0----0--3--0--1------3-|
E---------------------------3------3-----3-------------------------|

'All in a bad man's dream...'

e--------------------------------------------------------------------------------|
B--------------------------------------------------------------------------------|
G--------------------------------------------------------------------------------|
D--0-------------------0---------------------------------------------------------|
A---------3----1--3-------------------1-----0------0--0--------------------------|
E---------------------------3------3-----3---------------3------1--------0--1--2-|

Then it's back to the verse again :-)
Tap to rate this tab
 
# A B C D E F G H I J K L M N O P Q R S T U V W X Y Z