Song name
# A B C D E F G H I J K L M N O P Q R S T U V W X Y Z

The Good The Bad And The Queen - Herculean tab

This is one of my favourite songs.
I couldn't find the tab that would satisfy me so i worked it out by myself. 
I think it sounds good and it's easy to play. 
If you see any mistakes, please e-mail me. 
Enjoy playing :-)

INTRO:
    D    C       C   Bb	 F    C	        D    C
e|----------------------------------------------------------------|
B|----------------------------------------------------------------|
G|--11---9-------9---7---10---9---------11---9--------------------|
D|--12---10------10--8---10---10---x2---12---10-------------------|
A|--12---10------10--8---8----10--------12---10-------------------|
E|--10---8-------8---6---8----8---------10---8--------------------|

VERSE:
Standing on the darkened hour by the gasworks
Celebrate the ghost gone by when the love hurts
    D           Bb          F         C
e|----------------------------------------------------------------|
B|----------------------------------------------------------------|
G|--11----------7-----------10--------9---------------------------|
D|--12----------8-----------10--------10--------------------------|
A|--12----------8-----------8---------10--------------------------|
E|--10----------6-----------8---------8---------------------------|

And the medicine man here 24/7
you can get it fast in Armageddon
Everyone on the way to heaven slowly
        F                C
e|----------------------------------------------------------------|
B|----------------------------------------------------------------|
G|------10---------------9----------------------------------------|
D|------10---------------10---------------------------------------|
A|------8----------------10---------------------------------------|
E|------8----------------8----------------------------------------|

BREAK:
    D    Bb  F    C    D    C         C    Bb   F   C    D   C
e|----------------------------------------------------------------|
B|----------------------------------------------------------------|
G|--11---7---10---9----11---9---------9----7---10---9----11---9---|
D|--12---8---10---10---12---10--------10---8---10---10---12---10--|
A|--12---8---8----10---12---10--------10---8---8----10---12---10--|
E|--10---6---8----8----10---8---------8----6---8----8----10---8---|

2ND VERSE:
Call the prayer is come around here in the morning
wash your faces go to work there is no worning
    D           Bb          F         C
e|----------------------------------------------------------------|
B|----------------------------------------------------------------|
G|--11----------7-----------10--------9---------------------------|
D|--12----------8-----------10--------10--------------------------|
A|--12----------8-----------8---------10--------------------------|
E|--10----------6-----------8---------8---------------------------|

That it all gets better when life is straight
It's bigger than you the welfare state
Wing keeps singing it's not too late for you
        F                C
e|----------------------------------------------------------------|
B|----------------------------------------------------------------|
G|------10---------------9----------------------------------------|
D|------10---------------10---------------------------------------|
A|------8----------------10---------------------------------------|
E|------8----------------8----------------------------------------|

OUTRO:
    D           Bb          F         C
e|----------------------------------------------------------------|
B|----------------------------------------------------------------|
G|--11----------7-----------10--------9---------------------------|
D|--12----------8-----------10--------10--------------------------|
A|--12----------8-----------8---------10--------------------------|
E|--10----------6-----------8---------8---------------------------|
Tap to rate this tab
 
# A B C D E F G H I J K L M N O P Q R S T U V W X Y Z