Song name
# A B C D E F G H I J K L M N O P Q R S T U V W X Y Z

The Good The Bad And The Queen - Bunting Song tab

Bunting Song
by The Good, The Bad and the Queen

Send any corrections to bluremi (at) yahoo.com

This is just the accoustic guitar part, which, although it is often drowned
out by the other instruments, works very well when all you have is a guitar
and your voice.

    Dadd9
E --------------0-------0-----------------------0-------0----------|
B ------3-----------3-----------3-------3-----------3-----------3--|
G ----------2---------------2---------------2---------------2------|
D --3-------------------------------3------------------------------|(x8 for the intro)
A -----------------------------------------------------------------|
E -----------------------------------------------------------------|


    Dadd9
E --------------0-------0-----------------------0-------0----------|
B ------3-----------3-----------3-------3-----------3-----------3--|
G ----------2---------------2---------------2---------------2------|
D --3-------------------------------3------------------------------|
A -----------------------------------------------------------------|
E -----------------------------------------------------------------|
    Pull            out             the bunting

	                            E
E --------------0-------0-----------------------0-------0----------|
B ------3-----------3-----------3-------0-----------0-----------0--|
G ----------2---------------2---------------1---------------1------|
D --3--------------------------------------------------------------|
A ----------------------------------2------------------------------|
E -----------------------------------------------------------------|
                            She     made    them    one     by

    C
E -----------------------------------------------------------------|
B --------------1-------1-----------------------1-------1----------|
G ------0-----------0-----------0-------0-----------0-----------0--|
D ----------2---------------2---------------2---------------2------|
A --3-------------------------------3------------------------------|
E -----------------------------------------------------------------|
    one

    Dadd9                           Bm
E --------------0-------0------------------------------------------|
B ------3-----------3-----------3---------------3-------3----------|
G ----------2---------------2-----------4-----------4-----------4--|
D --3---------------------------------------4---------------4------|
A ----------------------------------2------------------------------|
E -----------------------------------------------------------------|
    Hang        'em in           the trees

	                            Am
E -----------------------------------------------------------------|
B --------------3-------3-----------------------1-------1----------|
G ------4-----------4-----------4-------2-----------2-----------2--|
D ----------4---------------4---------------2---------------2------|
A --2-------------------------------0------------------------------|
E -----------------------------------------------------------------|
                            or   they'll    blow

    Am                              F
E -----------------------------------------------------------------|
B --------------1-------1-----------------------1-------1----------|
G ------2-----------2-----------2-------2-----------2-----------2--|
D ----------2---------------2---------------3---------------3------|
A ----------------------------------3------------------------------|
E --3--------------------------------------------------------------|
                                 away

				    Dadd9
E ----------------------------------------------0-------0----------|
B --------------1-------1---------------3-----------3-----------3--|
G ------2-----------2-----------2-----------2---------------2------|
D ----------3---------------3-------3------------------------------|
A --3--------------------------------------------------------------|
E -----------------------------------------------------------------|
                                    Move            to         the


E --------------0-------0-----------------------0-------0----------|
B ------3-----------3-----------3-------3-----------3-----------3--|
G ----------2---------------2---------------2---------------2------|
D --3-------------------------------3------------------------------|
A -----------------------------------------------------------------|
E -----------------------------------------------------------------|
    country                                                 The

    E                               C
E --------------0-------0------------------------------------------|
B ------0-----------0-----------0---------------1-------1----------|
G ----------1---------------1-----------0-----------0-----------0--|
D ------------------------------------------2---------------2------|
A --2-------------------------------3------------------------------|
E -----------------------------------------------------------------|
    town    has     told    its     tale

	                            Dadd9
E ----------------------------------------------0-------0----------|
B --------------1-------1---------------3-----------3-----------3--|
G ------0-----------0-----------0-----------2---------------2------|
D ----------2---------------2-------3------------------------------|
A --3--------------------------------------------------------------|
E -----------------------------------------------------------------|
                                    You'll            be      forgotten...

    Bm
E -----------------------------------------------------------------|
B --------------3-------3-----------------------3-------3----------|
G ------4-----------4-----------4-------4-----------4-----------4--|
D ----------4---------------4---------------4---------------4------|
A --2-------------------------------2------------------------------|
E -----------------------------------------------------------------|
                                                     and the

    Am                              Am/G
E -----------------------------------------------------------------|
B --------------1-------1-----------------------1-------1----------|
G ------2-----------2-----------2-------2-----------2-----------2--|
D ----------2---------------2---------------2---------------2------|
A --0--------------------------------------------------------------|
E ----------------------------------3------------------------------|
    autumn                          leaves                      they

    F                               Em
E -----------------------------------------------------------------|
B ------------------1-------------------------------0--------------|
G ------2-------2-------2-------2-------0-------0-------0-------0--|
D ----------3---------------3---------------2---------------2------|
A --3-------------------------------2------------------------------|
E -----------------------------------------------------------------|
    fall...

	                            G
E -----------------------------------------------------------------|
B ------0-------0-------0-------0----------------------------------|
G ------------------0---------------------------0-------0----------|
D ----------2---------------0-----------0-----------0-----------0--|
A --2---------------------------------------2---------------2------|
E ----------------------------------3------------------------------|
                                                            And the

    F                               E
E -----------------------------------------------------------------|
B --------------1-------1-----------------------0-------0----------|
G ------2-----------2-----------2-------1-----------1-----------1--|
D ----------3---------------3---------------2---------------2------|
A --3-------------------------------2------------------------------|
E -----------------------------------------------------------------|
    whole   place   didn't          loook   the     same    that

    F
E -----------------------------------------------------------------|
B --------------1-------1-----------------------1-------1----------|
G ------2-----------2-----------2-------2-----------2-----------2--|
D ----------3---------------3---------------3---------------3------|
A --3-------------------------------3------------------------------|
E -----------------------------------------------------------------|
    night

    G                               F
E -----------------------------------------------------------------|
B ----------------------------------------------1-------1----------|
G --------------0-------0---------------2-----------2-----------2--|
D ------0-----------0-----------0-----------3---------------3------|
A ----------2---------------2-------3------------------------------|
E --3--------------------------------------------------------------|
                      They put a    party           on      and

    E				                F
E -----------------------------------------------------------------|
B --------------0-------0-----------------------1-------1----------|
G ------1-----------1-----------1-------2-----------2-----------2--|
D ----------2---------------2---------------3---------------3------|
A --2-------------------------------3------------------------------|
E -----------------------------------------------------------------|
    waited   for   the              sun

    Em
E -----------------------------------------------------------------|
B --------------0-------0---------------0-------0-------0-------0--|
G ------0-----------0-----------0-------------------0--------------|
D ----------2---------------2---------------3---------------3------|
A --2-------------------------------2------------------------------|
E -----------------------------------------------------------------|
    light                   to    recall

	                            Dadd9
E ----------------------------------------------0-------0----------|
B ------0-------0-------0-------0-------3-----------3-----------3--|
G ------------------0-----------------------2---------------2------|
D ----------3---------------3-------3------------------------------|
A --2--------------------------------------------------------------|
E -----------------------------------------------------------------|
                          All the   days                    are a-


E --------------0-------0-----------------------0-------0----------|
B ------3-----------3-----------3-------3-----------3-----------3--|
G ----------2---------------2---------------2---------------2------|
D --3-------------------------------3------------------------------|
A -----------------------------------------------------------------|
E -----------------------------------------------------------------|
    ticking              gone

Repeat the last bar (Dadd9) twice before heading back to the first verse.
The guitar for the second verse is identical to the first,
and the song ends by fading out with the last bar (Dadd9) repeating over and over.
Tap to rate this tab
# A B C D E F G H I J K L M N O P Q R S T U V W X Y Z