Guitaretab - guitar tabs
Song name
# A B C D E F G H I J K L M N O P Q R S T U V W X Y Z

The Good The Bad And The Queen - Three Changes tab

Three Changes Tab
By British In Mind
E: ------------------------|
B: ------------------------|
G: --------0--------0------|
D: ------0--------1---1----|
A: ----1-------3-----------|
E: --3---------------------| repeat that three times, then:

E: -------------------------|
B: -------------------------|
G: --------2---------0------|
D: --0--3----3----1---1-----|
A: --------------3----------|
E: -------------------------|
[ Tab from: ]
Related for Three Changes tab