Song name
# A B C D E F G H I J K L M N O P Q R S T U V W X Y Z

The Goons Of Doom - Fingered tab

----------------------------------------------------------------------------
                             Fingered - The Goons of Doom
----------------------------------------------------------------------------
Tabbed by:JoJo Gonzales
Email:---

Tuning:standard

e|---------------------------------------------------------------------|
B|---------------------------------------------------------------------|
G|---------------------------------------------------------------------| x2
D|---------------------------------------------------------------------|
A|-----------4---------7------------5-----------4----------------------|
E|-----5---------------------------------------------------------------|

e|---------------------------------------------------------------------|
B|---------------------------------------------------------------------|
G|---------------------------------------------------------------------|
D|-------------4---------7-----------5------------4--------------------| x2
A|------5--------------------------------------------------------------|
E|---------------------------------------------------------------------|
Tap to rate this tab
# A B C D E F G H I J K L M N O P Q R S T U V W X Y Z